Song name
# A B C D E F G H I J K L M N O P Q R S T U V W X Y Z

Kenny Chesney - When The Sun Goes Down tab

-------------------------------------------------------------------------------
                             When The Sun Goes Down - Kenny Chesney
-------------------------------------------------------------------------------
Tabbed by: Kodi

One of my favorite solos in country music. The bends in this solo can get kind of tricky. 
You have to practice along with the song to get the right feel of it.

Good luck and have fun.

If you have any questions of find any mistakes please post a comment.

Tuning: Standard

e|---------------------------------------------------------------------------|
B|---------------------------------------------------------------------------|
G|-----------14-----14~----------------------------------------------14-16---|
D|-12b---14-----14--------14br11---------------------------------14----------|
A|---------------------------------14br12-12+----------12--14/16-------------|
E|------------------------------------------------12h14----------------------|

e|------------------------------------------------------14-------------------|
B|-------17--------17---------17-----------------17b------17p14--------------|
G|-16b------16pbrb----16pbrb-----16pbr14-16~--------------------16pb14-------|
D|---------------------------------------------------------------------------|
A|---------------------------------------------------------------------------|
E|---------------------------------------------------------------------------|

e|-----17--------------------------------------------------------------------|
B|-17b------17pb14---------------------------14-17----------15b-13-----------|
G|-------------------16pb14--16-----14-16b---------16pb14-----------14p0h14~-|
D|-------------------------------16------------------------------------------|
A|---------------------------------------------------------------------------|
E|---------------------------------------------------------------------------|


************************************

| /   slide up
| \   slide down
| h   hammer-on
| p   pull-off
| ~   vibrato
| +   harmonic
| x   Mute note
| b   Bend
| pb  Pre-bend
| br  Bend release
| pbr Pre-bend release
|pbrb Pre-bend release bend
| brb Bend release bend

************************************
Tap to rate this tab
# A B C D E F G H I J K L M N O P Q R S T U V W X Y Z