Song name
# A B C D E F G H I J K L M N O P Q R S T U V W X Y Z

Kenny Chesney - Living In Fast Forward tab

Kenny Chesney - Living In Fast Forward Intro
()= artificial/pinch harmonic
__= Palm Muted

|-----------------------------------------------|
|-----------------------------------------------|
|---------------------7-----(7)-----------------|
|-----7-----(7)---------7-------------2-----(2)-|
|-------7--------5-5------5-------------2-------|
|-5-5-----5----------------------0-0------0-----|
  ___     _      ___      _      ___      _

|-------------------------------------|
|-----------------------------------3-|
|-4b6r4-2----------2-4-6-4-2----------|
|---------4-2------2-2-2-2-2-4-2-/4---|
|-------------4----0------------------|
|---------------0---------------------|


|-------------5-----------|
|----9-8-7-5--5b7r5-3-2---|
|-----------------------2-|
|-4/-9-8-7-6--------------|
|-------------------------|
|-------------------------|

|-------------------------------7----7---------12----12-----|
|-------------------------3--7b9-b9-r7-5--12b14--b14r12-10v-|
|------2-2-4-6-4-2------------------------------------------|
|------2-2-2-2-2-2-4-2-/4-4---------------------------------|
|------0-0--------------------------------------------------|
|-/12\------------------------------------------------------|
Tap to rate this tab
 
# A B C D E F G H I J K L M N O P Q R S T U V W X Y Z