Song name
# A B C D E F G H I J K L M N O P Q R S T U V W X Y Z

Kenny Chesney - Me And You tab

Highlighted       Show chord diagrams
-----------------------------------------------------------------------------
			     ME AND YOU - Kenny Chesney
-----------------------------------------------------------------------------

Tabbed by: bobcats#5

Email: c.j.carey11@hotmail.com

Tuning: Standard

                   Intro

e|-------------------------------------------3---|
B|-----0-------------------------------------3---|
G|-------0------7----------4-----2--4--5--4--0---|
D|---0-------7-----5--5--4----2--2--4--5--4--0---|
A|-------------------------------------------2---|
E|-3-----------------------------------------3---|


Verse 1:

G      D  Em            D         C
Ordinary? No, Really don't think so
         G        D
Not a love this true
G        D   Em         Bm       C         D      G
Common Destiny, we were meant to be.......me and you


Verse 2:

G         D     Em     D         C
Like a perfect scene from a movie screen
        G           D
We're a dream come true
G      D      Em     Bm     C       D      G
Suited perfectly for eternity.......me and you


Chorus:

C    G     D             G C
Everyday I need you even more 
        G          D
And the nighttime, too
C          G           D            Em
There's no way I could ever let you go
Am               D
Even if i wanted to


Verse 3:

G    D     Em         D          C
Everyday i live i try my best to give
       G      D
All I have to you
G        D      Em            Bm         C         D      G
Thank the stars above that we share this love......me and you


Chorus:

C    G     D             G C
Everyday I need you even more 
        G          D
And the nighttime, too
C          G           D            Em
There's no way I could ever let you go
Am               D
Even if i wanted to


Verse 4: 

G      D  Em            D         C
Ordinary? No, Really don't think so
      G         D
Just a precious few
G    D       Em          Bm    C       D      G
Ever make it last get as lucky as......me and you
D      G
Me and You
Tap to rate this tab
# A B C D E F G H I J K L M N O P Q R S T U V W X Y Z