Guitaretab - guitar tabs
Song name
# A B C D E F G H I J K L M N O P Q R S T U V W X Y Z

Kenny Chesney - How Forever Feels tab

e|-----------0------2-3-2-0^2-|
b|-----------0---1--3-3-3-3---|
g|-----------0---0--2-2-2-2---|  x3
d|-----------2---2------------|  
a|-----------2---3------------|
e|---3-3-2-0-0----------------|


e|-----------0------2--|
b|-----------0--1---3--|
g|-----------0--0---2--|
d|-----------2--2------|  4th time
a|-----------2--3------|
e|--3-3-2-0--0---------|
[ Tab from: http://www.guitaretab.com/k/kenny-chesney/61643.html ]
Related for How Forever Feels tab
How Forever Feels chords by Kenny Chesney