Song name
# A B C D E F G H I J K L M N O P Q R S T U V W X Y Z

Kenny Chesney - You Save Me tab

e|---------------------------------------|
B|---------------------------------------|
G|--/9-9-10-12-7~-7~------------------7~-|
D|--------------------7-9-10-5-9-10------|
A|----------------------------------8----|
E|---------------------------------------|

or obviously you can play it this way, whatever works best for you

e|---------------------------------------|
B|---------------------------------------|
G|--/9-9-10-12-7~-7~------------------7~-|
D|--------------------7-9-10---9-10------|
A|---------------------------10------8---|
E|---------------------------------------|
Tap to rate this tab
 
# A B C D E F G H I J K L M N O P Q R S T U V W X Y Z