Song name
# A B C D E F G H I J K L M N O P Q R S T U V W X Y Z

Kenny Chesney - She Thinks My Tractors Sexy tab

In standard tuning

(Fiddle or what ever you want to call it)

-----------------------------------------|
-----------------------------------------|
-----12/15--15--15--15--13--12--9--------|
-----------------------------------13----|
-----------------------------------------|
-----------------------------------------|


------------------------------------------|
------9/13--13--13--13--12--9-------------|
--------------------------------10--------|
------------------------------------13----|
-13---------------------------------------|
------------------------------------------|

-----------------------------------------|
-----------------------------------------|
-----12/15--15--15--15--13--12--9--------|
-----------------------------------13----|
-----------------------------------------|
-----------------------------------------|

    Guitar
--------------------------------------|
------------------------11--14--11----|
-----13--12------9--13----------------|
-------------13-----------------------|
--------------------------------------|
--------------------------------------|

there you have it, not too hard at all, have fun!!!
Tap to rate this tab
 
# A B C D E F G H I J K L M N O P Q R S T U V W X Y Z