Song name
# A B C D E F G H I J K L M N O P Q R S T U V W X Y Z

Kenny Chesney - There Goes My Life tab

Help us improve GuitareTab! Take a short survey!
Ok I think this is like right on but not sure bout the  2 in the first line or what
Um... please make comments. And also some of the notes are kinda hard to hear so before you
im wrong listen over really hard for em and if you don't hear them then dont do nothing 
you prolly suck really bad rofl!!
Have fun =)

no capos or anything and it is standard tuning

p=pull off
h=hammer on
/=slide
x=dead note

e--------------0---------------0------------------------------------|
b0-----------------------------------------0-----------------------|
g------2p1---------4----2---------1/2---2--------x------------------|
d------------------------------------------------2/4----4-----------|
a-------------------------------------------------------------------|
e-------------------------------------------------------------------|


e---------------0----------------0----------------------------------|
b----0--------------------------------------------------------------|
g--------2p1--------4----2----------1-1--2---4------x---------------|
d---------------------------------------------------2h4-------------|
a-------------------------------------------------------------------|
e-------------------------------------------------------------------|
Related for There Goes My Life tab