Song name
# A B C D E F G H I J K L M N O P Q R S T U V W X Y Z

Kenny Chesney - Dont Blink tab

Help us improve GuitareTab! Take a short survey!
Kenny Chesney
Dont Blink

Regular Tuning - No Capo - The tab is all acoustic- Took me a few hours but i'm certain 
dead on. If anything needs to be tweeked let me know. flash_golf@hotmail.com

The words are noted under the chords

Intro:
E|---0xx0xx0xx-0xx0xx0xx---0xx0xx0xx0xx0xx0xx-|
B|---12-10-9----9--10-9-----12-10-9---9--10-9---|
G|----------------------------------------------|
D|----------------------------------------------|
A|------------0--------------------0------------|
D|-0----------------------0---------------------|

E|-0-0xx0xx0xx-0xx0xx0xx0-0xx0xx0xx0xx0xx0xx-|
B|-0-12-10-9----9--10-9---0-12-10-9---9--10-9---|
G|-0-13-11-9----9---9-9---0-13-11-9---9--9--9---|
D|-2----------------------2---------------------|
A|-2----------0-----------2----------0----------|
D|-0----------------------0---------------------|
             E		    B7
E|-0-0-x0-x0--2--2-2-2-2-2-2-2--|
B|-0-0-x0-x0--0--0-0-0-0-0-0-0--|
G|-0-0-x0-x0--2--2-2-2-2-2-2-2--|
D|-2-2-x2-x2--1--1-1-1-1-1-1-1--|
A|-2-2-x2-x2--2--2-1-1-1-1-1-1--|
D|-0-2-x0-x0--0--0-0-0-0-0-0-0--| x each line below

I turned on the evening news, saw an--
Old man being interviewed--
Turning a hundred and two today
(Play Once)
I asked him, whats the secret to life
He looked up from old pipe
Laughed and said all I can say is
(Play chords louder for chorus)
Dont Blink
Just like that your six years old and you take a nap and you
Wake up and youre twenty five then your high school sweetheart becomes your wife
Dont blink--
You just might miss your babies growing like mine did
Turning into moms and dads, next thing you know your better half

E|-0-0-x0-x0--0--0-0-0-0-0-0-0--0-0-x0-x0--0--0-0-0-0-0-0-0--|
B|-0-0-x0-x0--0--0-0-0-0-0-0-0--0-0-x0-x0--0--0-0-0-0-0-0-0--|
G|-2-2-x2-x2--4--4-4-4-4-4-4-4--2-2-x2-x2--4--4-4-4-4-4-4-4--|
D|-4-4-x4-x4--6--6-6-6-6-6-6-6--2-2-x2-x2--6--6-6-6-6-6-6-6--|
A|-4-4-x4-x4--6--6-6-6-6-6-6-6--0-0-x0-x0--6--6-6-6-6-6-6-6--|
D|-0-0-x0-x0--0--0-0-0-0-0-0-0--0-0-x0-x0--0--0-0-0-0-0-0-0--|

Of fifty years is there in bed
And youre praying that god takes you instead
                                                                            E          B7
E|-0-0-x0-x0--0--0-0-0-0-0-0-0-0--0-0-x0-x0-1~--|
B|-0-0-x0-x0--0--0-0-0-0-0-0-0-0--0-0-x0-x0-0~--|
G|-2-2-x2-x2--2--2-2-2-2-2-2-2-2--0-0-x0-x0-2~--|
D|-4-4-x4-x4--4--4-4-4-4-4-4-4-4--2-2-x2-x2-1~--|
A|-4-4-x4-x4--4--4-4-4-4-4-4-4-4--2-2-x2-x2-2~--|
D|-0-0-x0-x0--0--0-0-0-0-0-0-0-0--0-0-x0-x0-0~--|
					    Let ring
Trust me friend A hundred years goes faster than you think
So dont blink--

E|-------2-----------------0-0-0-0--|
B|-------0--0-0-0-0--0-0-0-0-0-0-0--|
G|-0-2-0-0--2-2-2-2--0-2-0-4-4-4-4--|
D|-2-2-2----1-1-1-1--2-2-2-4-4-4-4--|
A|-2-2-2----2-2-2-2--------2-2-2-2--|
D|-------------------------0-0-0-0--| x2

             E		    B7
E|-0-0-x0-x0--2--2-2-2-2-2-2-2--|
B|-0-0-x0-x0--0--0-0-0-0-0-0-0--|
G|-0-0-x0-x0--2--2-2-2-2-2-2-2--|
D|-2-2-x2-x2--1--1-1-1-1-1-1-1--|
A|-2-2-x2-x2--2--2-1-1-1-1-1-1--|
D|-0-2-x0-x0--0--0-0-0-0-0-0-0--| x each line below

I was glued to my TV, when it
Looked like he looked at me and said
Lets start putting first things first
(Play Once)
Cause when your hour glass runs out of sand you cant
Flip it over and start again
Take every breath god gives you for what its worth
(Play Once)
Dont Blink
Just like that your six years old and you take a nap and you
Wake up and youre twenty five then your high school sweetheart becomes
your wife
Dont blink--
You just might miss your babies growing like mine did
Turning into moms and dads, next thing you know your better half

E|-0-0-x0-x0--0--0-0-0-0-0-0-0--0-0-x0-x0--0--0-0-0-0-0-0-0--|
B|-0-0-x0-x0--0--0-0-0-0-0-0-0--0-0-x0-x0--0--0-0-0-0-0-0-0--|
G|-2-2-x2-x2--4--4-4-4-4-4-4-4--2-2-x2-x2--4--4-4-4-4-4-4-4--|
D|-4-4-x4-x4--6--6-6-6-6-6-6-6--2-2-x2-x2--6--6-6-6-6-6-6-6--|
A|-4-4-x4-x4--6--6-6-6-6-6-6-6--0-0-x0-x0--6--6-6-6-6-6-6-6--|
D|-0-0-x0-x0--0--0-0-0-0-0-0-0--0-0-x0-x0--0--0-0-0-0-0-0-0--|

Of fifty years is there in bed
And youre praying that god takes you instead

                         E          B7
E|-0-0-x0-x0--0--0-0-0-0-0-0-0-0--0-0-x0-x0-1~--|
B|-0-0-x0-x0--0--0-0-0-0-0-0-0-0--0-0-x0-x0-0~--|
G|-2-2-x2-x2--2--2-2-2-2-2-2-2-2--0-0-x0-x0-2~--|
D|-4-4-x4-x4--4--4-4-4-4-4-4-4-4--2-2-x2-x2-1~--|
A|-4-4-x4-x4--4--4-4-4-4-4-4-4-4--2-2-x2-x2-2~--|
D|-0-0-x0-x0--0--0-0-0-0-0-0-0-0--0-0-x0-x0-0~--|
					     Let ring
Trust me friend A hundred years goes faster than you think
So dont blink

E|-------2-----------------0-0-0-0--|
B|-------0--0-0-0-0--0-0-0-0-0-0-0--|
G|-0-2-0-0--2-2-2-2--0-2-0-4-4-4-4--|
D|-2-2-2----1-1-1-1--2-2-2-4-4-4-4--|
A|-2-2-2----2-2-2-2--------2-2-2-2--|
D|-------------------------0-0-0-0--| x2

  Strum first note slow
E|-0--0-x0-x0--0--0-0-0-0-0-0-0--0-0-x0-x0--0--0-0-0-0-0-0-0--|
B|-0--0-x0-x0--0--0-0-0-0-0-0-0--0-0-x0-x0--0--0-0-0-0-0-0-0--|
G|-2--2-x2-x2--2--2-2-2-2-2-2-2--4-4-x4-x4--4--4-4-4-4-4-4-4--|
D|-4--4-x4-x4--4--4-4-4-4-4-4-4--6-6-x6-x6--6--6-6-6-6-6-6-6--|
A|-4--4-x4-x4--4--4-4-4-4-4-4-4--6-6-x6-x6--6--6-6-6-6-6-6-6--|
D|-0--0-x0-x0--0--0-0-0-0-0-0-0--0-0-x0-x0--0--0-0-0-0-0-0-0--|

So I been trying to slow it down
I been trying to take it in--

E|-0-0-x0-x0--0--0-0-0-0-0-0-0--0-0-0--1------------|
B|-0-0-x0-x0--0--0-0-0-0-0-0-0--0-0-0--0------------|
G|-2-2-x2-x2--2--2-2-2-2-2-2-2--2-2-2--2------------|
D|-2-2-x2-x2--2--2-2-2-2-2-2-2--2-2-2--1------------|
A|-0-0-x0-x0--0--0-0-0-0-0-0-0--2-2-2--2------------|
D|-0-0-x0-x0--0--0-0-0-0-0-0-0--0-0-0--0------------|

In this here today gone tomorrow
World were living in

             E		    B7
E|-0-0-x0-x0--2--2-2-2-2-2-2-2--|
B|-0-0-x0-x0--0--0-0-0-0-0-0-0--|
G|-0-0-x0-x0--2--2-2-2-2-2-2-2--|
D|-2-2-x2-x2--1--1-1-1-1-1-1-1--|
A|-2-2-x2-x2--2--2-1-1-1-1-1-1--|
D|-0-2-x0-x0--0--0-0-0-0-0-0-0--| x each line below

Dont Blink
Just like that your six years old and you take a nap and you
Wake up and youre twenty five then your high school sweetheart becomes your wife
Dont blink--
You just might miss your babies growing like mine did
Turning into moms and dads, next thing you know your better half

E|-0-0-x0-x0--0--0-0-0-0-0-0-0--0-0-x0-x0--0--0-0-0-0-0-0-0--|
B|-0-0-x0-x0--0--0-0-0-0-0-0-0--0-0-x0-x0--0--0-0-0-0-0-0-0--|
G|-2-2-x2-x2--4--4-4-4-4-4-4-4--2-2-x2-x2--4--4-4-4-4-4-4-4--|
D|-4-4-x4-x4--6--6-6-6-6-6-6-6--2-2-x2-x2--6--6-6-6-6-6-6-6--|
A|-4-4-x4-x4--6--6-6-6-6-6-6-6--0-0-x0-x0--6--6-6-6-6-6-6-6--|
D|-0-0-x0-x0--0--0-0-0-0-0-0-0--0-0-x0-x0--0--0-0-0-0-0-0-0--|

Of fifty years is there in bed
And youre praying that god takes you instead

                                                                            E          B7
E|-0-0-x0-x0--0--0-0-0-0-0-0-0-0--0-0-x0-x0-1~--|
B|-0-0-x0-x0--0--0-0-0-0-0-0-0-0--0-0-x0-x0-0~--|
G|-2-2-x2-x2--2--2-2-2-2-2-2-2-2--0-0-x0-x0-2~--|
D|-4-4-x4-x4--4--4-4-4-4-4-4-4-4--2-2-x2-x2-1~--|
A|-4-4-x4-x4--4--4-4-4-4-4-4-4-4--2-2-x2-x2-2~--|
D|-0-0-x0-x0--0--0-0-0-0-0-0-0-0--0-0-x0-x0-0~--|

Trust me friend A hundred years goes faster than you think
So dont Blink

E|-------2-----------------0-0-0-0--|
B|-------0--0-0-0-0--0-0-0-0-0-0-0--|
G|-0-2-0-0--2-2-2-2--0-2-0-4-4-4-4--|
D|-2-2-2----1-1-1-1--2-2-2-4-4-4-4--|
A|-2-2-2----2-2-2-2--------2-2-2-2--|
D|-------------------------0-0-0-0--| x7

(On second time)			        (On fifth time)
No, dont blink				Dont Blink--
(On third time)					(On sixth time)
Dont Blink			   Life goes faster than your think--
Life goes faster than you think		Dont Blink--
(On fourth time)		      (On seventh, strum last note to end)
Dont Blink
Life goes faster than you think
Dont Blink--
Related for Dont Blink tab