Song name
# A B C D E F G H I J K L M N O P Q R S T U V W X Y Z

Kenny Chesney - Better As A Memory tab

e-------------------------------------------------------------------|
b-------------------------------------------------------------------|
g----11-14-14v----14br-11---------------------------14--------------|
d-------------------------14v--------12-14brbrbrbh-----14r-12-12v---|
a---------------------------------14--------------------------------|
e-------------------------------------------------------------------|


e------------------------------------------------------------------|
b---12-15-15v------17br-15-15-17v------19b-19v---17br-15-14-15-----|
g---------------14------------------14-------------------------16v-|
d------------------------------------------------------------------|
a------------------------------------------------------------------|
e------------------------------------------------------------------|

e--------------------------------------------------------------------------------|
b--------------------------------------------------------------------------------|
g----14br-11-11-14v--------------------------------------------------------------|
d----------------------14br-12-12-14v----14pbr-14pbr-14pbr-12v-------14br-12-12--|v
a-----------------------------------------------------------------12-------------|
e--------------------------------------------------------------------------------|
Tap to rate this tab
# A B C D E F G H I J K L M N O P Q R S T U V W X Y Z