Song name
# A B C D E F G H I J K L M N O P Q R S T U V W X Y Z

Kenny Chesney - Just Not Today tab

Tabbed by: Countryguy1194

Tuning: Standard

e|------------------------------------------------------------|
B|-----14--17p14---10h12-----------15-15~-14-12-10-10~-9------|
G|---------------------------9h11------------------------9----|
D|---------------------------------------------------------9~-|
A|------------------------------------------------------------|
E|------------------------------------------------------------|

e|-----------------------------------------------------------------------|
B|-----------------------------------------------------------------12h14-|
G|----------------------------------------------------------11h14--------|
D|----------------------------------------------------7h9----------------|
A|----7--9---12---16~----14--12---14-------------7h9---------------------|
E|-----------------------------------------------------------------------|

e|-----------------------------|
B|--14~-15h17p14---------------|
G|-------------------14p11h14~-|
D|-----------------------------|
A|-----------------------------|
E|-----------------------------|


| /  slide up
| \  slide down
| h  hammer-on
| p  pull-off
| ~  vibrato
| +  harmonic
| x  Mute note
===============================================================================
Tap to rate this tab
 
# A B C D E F G H I J K L M N O P Q R S T U V W X Y Z