Song name
# A B C D E F G H I J K L M N O P Q R S T U V W X Y Z

Kenny Loggins - Dannys Song tab

DANNY’S SONG
Tabbed by: COMBAT33
Email: COMBAT_RON33@YAHOO.COM

Tuning:STANDARD

INTRO:

    D
e|-----------2-----------2-----------2-----------2--|
B|--------3-----------3-----------3-----------3-----|
G|-----2-----------2-----------2-----------2--------|
D|--0-----------0-----------0-----------0-----------|
A|--------------------------------------------------|
E|--------------------------------------------------|

VERSE:

    D                       C                   Bm
e|-----------2-----------2--------------------------------------------|
B|--------3-----------3-----------1-----------1--------------------3--|
G|-----2-----------2-----------0-----------0-----------4--------4-----|
D|--0-----------0-----------------------2-----------4--------4--------|
A|--------------------------3--------3-----------2--------2-----------|
E|--------------------------------------------------------------------|
          PEOPLE  SMILE  AND  TELL  ME  IM  THE  LUCKY  ONE

    Bm                      E       Esus 
e|-----------2--------------------------------------------------------|
B|-----------------------3--------------------------------0-----------|
G|--------4-----------4-----------1-----------2--------2-----------0--|
D|-----4-----------4-----------2-----------2--------2-----------2-----|
A|--2-----------2-----------------------2-----------------------------|
E|--------------------------0--------0-----------0-----------0--------|
   AND  WEVE  JUST  BEGAN                                 THINK  IM

   Asus                  A
e|--------------------------------0--------------|
B|--------------------3-----------------------2--|
G|--------2--------2-----------2-----------2-----|
D|-----2--------2-----------2-----------2--------|
A|--0--------0-----------0-----------0-----------|
E|-----------------------------------------------|
      GONNA   HAVE   A   SON

    D                       C                   Bm
e|-----------2-----------2--------------------------------------------|
B|--------3-----------3-----------1-----------1--------------------3--|
G|-----2-----------2-----------0-----------0-----------4--------4-----|
D|--0-----------0-----------------------2-----------4--------4--------|
A|--------------------------3--------3-----------2--------2-----------|
E|--------------------------------------------------------------------|
        HE   WOULD   BE   LIKE   SHE   AND   ME   AS   FREE   AS   A 

    Bm                      E       Esus 
e|-----------2--------------------------------------------------------|
B|-----------------------3--------------------------------0-----------|
G|--------4-----------4-----------1-----------2--------2-----------0--|
D|-----4-----------4-----------2-----------2--------2-----------2-----|
A|--2-----------2-----------------------2-----------------------------|
E|--------------------------0--------0-----------0-----------0--------|
   DOVE              CONCIEVE   IN   LOVE            SUN   IS   GONNA  

   Asus                  A
e|--------------------------------0--------------|
B|--------------------3-----------------------2--|
G|--------2--------2-----------2-----------2-----|
D|-----2--------2-----------2-----------2--------|
A|--0--------0-----------0-----------0-----------|
E|-----------------------------------------------|
    SHINE   ABOVE

CHORUS:

    G                    A         D    /C#    Bm    /A
e|------3-------------------------------------------------------------|
B|------3-------------------------2-----------------------------------|
G|------0---------0------------------------2-------2------------------|
D|-------------0-----0--------2--------0--------------------4------4--|
A|------------------------0--------------------4--------2-------0-----|
E|--3-------3---------------------------------------------------------|
  AND EVEN THOUGH WE AINT GOT MONEY       IM SO IN LOVE WITH YOU HONEY

    G                A                       D   /C#     Bm    /A
e|--------------------------------------------------------------------|
B|-----------------0--------------------2-----------------------------|
G|--------0-----0-----------2--------2----------2-----2---------------|
D|-----0-----------------2--------2----------0---------------4-----4--|
A|--------------------0--------0-------------------4------2-----0-----|
E|--3--------3--------------------------------------------------------|
    EVERYTHING   WOULD   BRING   A   CHAIN   OF   LOVE

    G                     A                    D
e|---------------------------------------------------------------2----|
B|---------------------0--------------------2--------3--------3-------|
G|--------0---------0-----------2--------2--------2--------2----------|
D|-----0---------0-----------2--------2--------0--------0-------------|
A|------------------------0--------0----------------------------------|
E|--3--------3--------------------------------------------------------|
     AND  IN  THE  MORNING  WHEN  I  RISE  YOU  BRING  TEARS  OF  JOY

    C                   Bm                    E                       
e|--------------------------------------------------------------------|
B|--------1-----------1--------------------3-----------0-----------0--|
G|-----0-----------0-----------4--------4-----------2-----------2-----|
D|--------------2-----------4--------4-----------2-----------2--------|
A|--3--------3-----------2--------2-----------------------------------|
E|--------------------------------------------0-----------0-----------|
    TO   MY   EYES   AND   TELL   ME         E_____VERY_____THING

    A            /A  /B  /C#
e|---------------------------|
B|-----2---------------------|
G|-----2---------------------|
D|-----2---------------------|
A|--0-------------0---2---4--|
E|---------------------------|
       ITS GONNA BE ALRIGHT

Tap to rate this tab
 
# A B C D E F G H I J K L M N O P Q R S T U V W X Y Z