Song name
# A B C D E F G H I J K L M N O P Q R S T U V W X Y Z

Kenny Loggins - Will Of The Wind tab

-------------------------------------------------------------------------------
			     Will of the Wind - Kenny Loggins
-------------------------------------------------------------------------------

Tuning:  Standard - Capo on 7th fret

e|--------------------0-----------------------------------------------------------|
B|-----------0---------------0------3-------0-------------0-----------------------|
G|-------0------0--------0------0-------0------0------0------0--------------------|
D|--------------------------------------------------------------------------------|
A|----3---------------3-------------2--------------2------------------------------|
E|--------------------------------------------------------------------------------|

e|--------------------0-----------------------------------------------------------|
B|-----------0---------------0------3-------0-------------0-----------------------|
G|-------0------0--------0------0-------0------0------0------0--------------------|
D|--------------------------------------------------------------------------------|
A|----3---------------3-------------2--------------2------------------------------|
E|--------------------------------------------------------------------------------|

e|--------------------0--------------------------------------------------------|
B|-----------0---------------0-------3-------0---------------------------------|
G|-------0------0--------0------0--------0------0-----------0---0--------------|
D|-------------------------------------------------------4---------------------|
A|----3---------------3--------------2--------------2--------------------------|
E|-----------------------------------------------------------------------------|

e|-----------------------------------------------------------------------------|
B|----1------0--------------0-------3-------0----------------------------------|
G|-----------------------0-----0---------0-----0------------0---0--------------|
D|------------------------------------------------------4----------------------|
A|----0-------------0---------------2--------------2---------------------------|
E|-----------------------------------------------------------------------------|

Repeat as necessary

There are some slight variations throughout the song, but they're not hard to figure out.
Tap to rate this tab
 
# A B C D E F G H I J K L M N O P Q R S T U V W X Y Z