Song name
# A B C D E F G H I J K L M N O P Q R S T U V W X Y Z

Kenny Wayne Shepherd - Electric Lullabye tab

                          KENNY WAYNE SHEPHERD
                           ELECTRIC LULLABYE


standard tuning
EADGBe


---------------------------------------------------------------------|
-----------------------------------12brb--12---9---------------------|
--9/11-11/13---13/14-13/14/13--------------------11br-9---11br-9-11--|
---------------------------------------------------------------------|
--7/-9--9/11---11/12-11/12/11----------------------------------------|
---------------------------------------------------------------------|

---------------------------------------------------------------------|
----------------------------------9/10/12----------------------------|
-------9-9----11br-9----9-----11b---------9----11br-9-11-------------|
--9/11---------------11-----------------------------------11/13/11/9-|
---------------------------------------------------------------------|
---------------------------------------------------------------------|

-----------------------------------------12-14b-14br-12-14----------------|
-----------------------------12br--12h14----------------------------------|
-------9-9----11br-9----9------------------------------------------9---9--|
--9/11---------------11---------------------------------------9/11---11---|
--------------------------------------------------------------------------|
--------------------------------------------------------------------------|

--------------------------------------------------------------------------|
---------------------9/10/12--------9-12----------------------------------|
--11br-9----9-----11---------9-----------11br-9----9-11-9--11/13/9-9/11---|
---------11-------------------------------------11------------------------|
--------------------------------------------------------------------------|
--------------------------------------------------------------------------|

---------13b-13br--------------13b-13br------------12br---12b----12br-|
--12br---13b-13br----12br------13b-13br------12br---------------------|
----------------------------------------------------------------------|
----------------------------------------------------------------------|
----------------------------------------------------------------------|
----------------------------------------------------------------------|
peace
Tap to rate this tab
# A B C D E F G H I J K L M N O P Q R S T U V W X Y Z