Song name
# A B C D E F G H I J K L M N O P Q R S T U V W X Y Z

Kenny Wayne Shepherd - Never Lookin Back tab

Never lookin' back - Kenny Wayne Shepherd
=========================================

Album: How I go (2011)


Here are the most important parts from the song.
The main guitar solo is not written up to the end
because I can't figure out the rest - you must do
it yourself or improvise.

For comments or if you got out the rest please
mail me: fischer877@aol.com






Intro / Main Riff:
==================

e----------------------------------|
h----------------------------------|
G---9-9--9--7----------------------|
D---9-9--9--7-9--7-9--7--9--7--9---|
A---7-7--7--7-9--7-9--7--9--7--9---|
E-------------7--7-7--7--7--7--7---|




Fills during Intro:
===================

  (0:21)                                     (0:28)

e----------------------------------------    ---7--------------------------|
h---10b--10b--10b--10b--10b--10b--rb-sx--    ------10--7-------------------|
G----------------------------------------    -------------9-7-9------------|
D----------------------------------------    -------------------9-7--9-sx--|
A----------------------------------------    ------------------------------|
E----------------------------------------    ------------------------------|





Fill between Refain 1 and Verse 2:
==================================

   (1:11)

e--------------------------------------------------|
h--------------------------------------------------|
G-------------------9b-9rb--p7------9b-9br--p7-----|
D--7h9-9-7-9--7-9--------------9---------------9---|
A--------------------------------------------------|
E--------------------------------------------------|



   (1:14)

e--------------------------------------------------|
h----------------------10--------------------------|
G-------------------9b----9--7----7h9--------------|
D--7h9-9-7-9--7-9--------------9-------------------|
A--------------------------------------------------|
E--------------------------------------------------|




GTR. Solo:
==========

   (2:14)            (2:16)           (2:18)

e----------10--------12b--10----------10-------------------------------------------|
h---10h12--------------------12-----------12-(10)----12-10-------------------------|
G-------------------------------------------------11-------11-9--7-------------7---|
D-------------------------------------------------------------------9--7--7h9------|
A----------------------------------------------------------------------------------|
E----------------------------------------------------------------------------------|
                                        |                     |
                                         -------- ??? --------


   (2:21)              (2:23)                  (2:24)

e------------------------------------------------------------------------------------|
h---10b--7-10--10b---10b--7-10--10b-(hold)---r10--7----7-----------------------------|
G---------------------------------------------------9-----9-7-9-7-----7-9-9b--7-9----|
D-----------------------------------------------------------------9---------------9--|
A------------------------------------------------------------------------------------|
E------------------------------------------------------------------------------------|



   (2:28)                    (2:30)

e--------16-16-17-16--------------16-16-17-16-----------|
h---s17--------------15b-----s17--------------15b-------|
G-------------------------------------------------------|
D-------------------------------------------------------|
A-------------------------------------------------------|
E-------------------------------------------------------|


   (2:31)                                        (2:34)

e-------16-16-17-16-14------------------------------14bb--14b--12-14---------------------|
h---s17----------------16-12-14-14p12----12-12---12-------------------14b(hold)-r14--12--|
G-------------------------------------13-------------------------------------------------|
D----------------------------------------------------------------------------------------|
A----------------------------------------------------------------------------------------|
E----------------------------------------------------------------------------------------|


   (2:38)

e------10-----------------------|
h---12----12-10-7---------------|
G--------------------- ...   ---| ?????
D-------------------------------|
A-------------------------------|
E-------------------------------|
Tap to rate this tab
 
# A B C D E F G H I J K L M N O P Q R S T U V W X Y Z