Song name
# A B C D E F G H I J K L M N O P Q R S T U V W X Y Z

Kenny Wayne Shepherd - Shame Shame Shame tab

e|-----------|-------------------------|------------------------------------|
B|-----------|-9-----------------------|---------7--9-7---------------------|
G|-----9h10--|---11-9h10---------------|-----7h8--------9-8--------7--------|
D|--11-------|-----------11-------9/11-|--9-----------------7--------9------|
A|-----------|--------------91011------|----------------------789-------9---|
E|-----------|-------------------------|------------------------------------|




e|------------------------------------|----------------------|
B|------------------------------------|------10--9-----------|
G|------6--8-8h9-8--------------------|------9---8-----------|
D|---8-------------9-7h8--------------|------10--9-----------|
A|-----------------------9--7---------|--9---9---8-----------|
E|----------------------------9-8-7-6-|----------------------|
Tap to rate this tab
 
# A B C D E F G H I J K L M N O P Q R S T U V W X Y Z