Song name
# A B C D E F G H I J K L M N O P Q R S T U V W X Y Z

Kenny Wayne Shepherd - Chase The Rainbow tab

6|----------------------------|-----------------------------|
5|--------------X-X----8-8-8-*|----------------X-X---8-8-8--|PLAY THROUGHOUT
4|--------------X-X----6-6-6--|------------5VV-X-X---6-6-6--|SONG
3|-----5---5H7--X------7-7-7--|----5---5H7-----X-----7-7-7--|
2|-5H7---7----------0--0-0-0-*|-5H7---7------------0-0-0-0--|
1|----------------------------|-----------------------------|

"You will never be satisfied, your gonna chase the rainbow blind"

6|--------------------------7-7-7-7----7-7-----6-------5-5-5-5------------|
5|--------------------------7-7-7-7----7-7-----6-------5-5-5-5------------|
4|-------------------------7-7-7-7-----7-7-----6-------5-5-5-5--X-X-------|
3|------5-------------------------------------------------------X-X-------|
2|-5-7----7-5-6---7-7-----------------------------------------------------|
1|-----------------------------------7------6-------5---------------------|

LATER ON IN THE SONG THIS IS PLAYED AT " LOVE, LOVE,LOVE,LOVELOVE,LOVE , LOVE IS WHAT YOU WANT"----|
|
6|------------------------------------------------------------------| 
5|-0-----0-----0-------0-------0-------0-------8-8------------------| 
4|-0-----0-----0-------0-------0-------0--7\9------5-7-5------------|
3|-0-4^--0-5^--0-6^--0-7^^^--0-10--0--------------------7-----------|
2|------------------------------------------------------------------|
1|------------------------------------------------------------------|


HERE ARE SOME LICKS SHEPHERD USES IN THIS SONG


6|-------------------------------------------------------------------------|
5|-10^^^--------10^^^---------10^^^----------10^^^--------10^^^---10^^^----|
4|--------11^^^--------11^^^----------11^^^----------11^^^-----------11^^^-|
3|-------------------------------------------------------------------------|
2|-------------------------------------------------------------------------|
1|-------------------------------------------------------------------------|

6|-12^-------12^----12^------12^-----12^-----12^-----12^-----12^-----------|
5|-13^1/4---13^1/4--13^1/4---13^1/4--13^1/4--13^1/4--13^1/4--13^1/4--------|
4|-12^------12^-----12^------12^-----12^-----12^-----12^-----12^-----------|
3|-------------------------------------------------------------------------|
2|-------------------------------------------------------------------------|
1|-------------------------------------------------------------------------|

6|-17^^^-----17^^^-------17^^^-------17^^^------17^^^-------17^^^----17^^^|
5|---------0----------0-----------0----------0-----------0-----------0----|
4|---------0----------0-----------0----------0-----------0-----------0----|
3|------------------------------------------------------------------------|
2|------------------------------------------------------------------------|
1|------------------------------------------------------------------------|
THE TRICK TO THIS PART IS RAKING ON THE OPEN PARTS, REALLY ITS ONE BIG RAKE


THIS IS A LITTLE EXTRA LICK AT THE END

6|-----20^F--20^1/4---17^^^-------------------20^F--20^1/4--17^^^--|
5|------------------------17^^^---20\------------------------------|
4|----------------------------------------0------------------------|
3|-0--------------------------------------0------------------------|
2|-0---------------------------------------------------------------|
1|-----------------------------------------------------------------| 

H=HAMMER-ON
P=PULL-OFF
/=SLIDE UP
\=SLIDE DOWN
(/)=LEGATO SLIDE UP
(\)=LEGATO SLIDE DOWN
VV=VERBRADO
X=MUTE
(0)=GHOST NOTE
TVV=TRILL
^F=FULL BEND
^F1/4=ONE FOURTH BEND


Tap to rate this tab
# A B C D E F G H I J K L M N O P Q R S T U V W X Y Z