Song name
# A B C D E F G H I J K L M N O P Q R S T U V W X Y Z

Kenny Wayne Shepherd - Somehow Somewhere Someway tab

                          KENNY WAYNE SHEPHERD
                       SOMEHOW SOMEWHERE SOMEWAY


standard tuning
EADGBe


---------------------------10b12-10b12----10b12-10b12--8---------8b-|
---------------------------------------------------------10-8-10----|
--------------------------------------------------------------------|
--------------------------------------------------------------------|
--7-10p7-10p7-10p7-10p7---------------------------------------------|
--------------------------------------------------------------------|

--10b12--10--8p5----8-5-------5-5----5-5-------------------------------|
------------------8-----5--8b-----8b-----8br-5-------------------------|
-----------------------------------------------7-5-------5-5h7-5---5---|
---------------------------------------------------7-------------7---7-|
-----------------------------------------------------------------------|
-----------------------------------------------------------------------|

--------------------------------------------------------|
--------------------------------------------------------|
--------------------------------------5----7b-5---------|
--------5-------5-------5-------5-5-5---7-------7-5-7---|
--5-6-7---5-6-7---5-6-7---5-6-7-------------------------|
--------------------------------------------------------|

this is played behind the lyrics below
---5--5/7-5------5--5/7-5------10--10/12-10------5--5/7-5--------------|
---5--5/7-5------5--5/7-5------10--10/12-10------5--5/7-5--------------|
---5--5/7-5------5--5/7-5------10--10/12-10------5--5/7-5--------------|
---7--7/9-7------7--7/9-7------12--12/14-12------7--7/9-7--------------|
-----------------------------------------------------------7-10p7-10p7-|
-----------------------------------------------------------------------|

--------------------5--5/7-5------|
--------------------5--5/7-5------|
--------------------5--5/7-5------|
--------------------7--7/9-7------|
--10p7-10p7-10p7------------------|
----------------------------------|
Now girl, I see you in my dreams
It happens every day and night now
You got me going to extremes
Don't seem to care what's wrong or right now
I'll make ya mine Someday
Somehow, Somewhere, Someway

--5~--8-------5~------------------------------------------------|
------------------8---------------------------8-----------------|
--------------------7-5---------7br-5-----------7br-5-----------|
------------------------7-------------7---------------7---------|
----------------------------------------------------------------|
----------------------------------------------------------------|

--5--5/7-5------5/7-x-5/7/5-----|
--5--5/7-5------5/7-x-5/7/5-----|
--5--5/7-5------5/7-x-5/7/5-----|
--7--7/9-7------7/9-x-7/9/7-----|
--------------------------------|
--------------------------------|
You say I'm really not your kind
I know I look a little rough now
If I could give you everything, girl
Would it ever be enough now
I'll make you mine someday
Somehow, Somewhere, Someway
It makes me wonder what's goin' on baby,
when the night rolls in
It something happens that feels so strong and
and I just can't pretend, oh yeah


solo
---10b12-10b12-8---------8b---10b12-10b-10b-10b-8---------8b--|
-----------------10-8-10--------------------------10-8-10-----|
--------------------------------------------------------------|
--------------------------------------------------------------|
--------------------------------------------------------------|
--------------------------------------------------------------|

-----5-5----5-5---5-5-8-5-----5------------------------------------------|
--8b-----8b-----8b--------5-8---8-5-------------5h8----------------------|
------------------------------------7-5-----5h7-------5-7-5-----5-7-5----|
---------------------------------------7----------------------7-------7--|
-------------------------------------------------------------------------|
-------------------------------------------------------------------------|

---------5-5-8-5------5-5-8-5------5-5-8-5--------------|
----5-8b---------5-8b---------5-8b---------8-5----------|
--7--------------------------------------------7br-5----|
-----------------------------------------------------7--|
--------------------------------------------------------|
--------------------------------------------------------|


thats pretty much it
great song
peace
Tap to rate this tab
# A B C D E F G H I J K L M N O P Q R S T U V W X Y Z