Song name
# A B C D E F G H I J K L M N O P Q R S T U V W X Y Z

Kent - Vinternoll tab

-------------------------------------------------------------------------------
			     Vinternoll - Kent
-------------------------------------------------------------------------------
Tabbed by: flyinghawk

Tuning:Standard: EBGDAe

e|----9-----9--7--9-----9------9--7--9-------9----9--7--9-----9---9--7--9-|
B|-------------------9-------------------7-----------------9--------------|
G|------------------------------------------------------------------------|(2)
D|------------------------------------------------------------------------|(x)
A|------------------------------------------------------------------------|
E|------------------------------------------------------------------------|
                                         
e|-----------------------------------------------------------------------|
B|-----------------------------------------------------------------------|
G|--9----9-8-9-8----8----8-6-8-6----6---6--4-----------------------------|
D|--------------------------------------------6----6--6---4---2----------|
A|-----------------------------------------------------------------------|
E|-----------------------------------------------------------------------|



e|-----------------------------------------------------------------------|
B|-----------------------------------------------------------------------|
G|--9----9-8-9-8----8----8-6-8-6----6---6--4-----------------------------|
D|--------------------------------------------6--------------------------|
A|-----------------------------------------------------------------------|
E|-----------------------------------------------------------------------|




| /  slide up
| \  slide down
| h  hammer-on
| p  pull-off
| ~  vibrato
| +  harmonic
| x  Mute note
===============================================================================
Tap to rate this tab
# A B C D E F G H I J K L M N O P Q R S T U V W X Y Z