Song name
# A B C D E F G H I J K L M N O P Q R S T U V W X Y Z

Kent - Krleken Vnta tab

-------------------------------------------------------------------------------
                             Kärleken Väntar(solo) - Kent
-------------------------------------------------------------------------------
Tabbed by: Øyvind
Email: gumdropster@gmail.com

Tuning: Standard (eBGDAE)

e|---------------5-----7/8\7-------------------------------------------------|
B|-----------------8---------5-8/10\8-------------------5b-------------------|
G|-/7-7-5-7B-5-7-----5----------------5---/7-7-5-7B-5-7----7-5---------------|
D|-------------------------------------------------------------7-------------|
A|---------------------------------------------------------------------------|
E|---------------------------------------------------------------------------|

e|---5---5-7--7/8\7---7/8\7--------------------------------------------------|
B|-8---8------------5--------------------------------------------------------|
G|--------------------------7--7B-7-5----------------------------------------|
D|------------------------------------7--------------------------------------|
A|---------------------------------------------------------------------------|
E|---------------------------------------------------------------------------|


| B  bend up full-tone
| b  bend semi-tone
| /  slide up
| \  slide down
| h  hammer-on
| p  pull-off
| ~  vibrato
| +  harmonic
| x  Mute note
===============================================================================
Tap to rate this tab
 
# A B C D E F G H I J K L M N O P Q R S T U V W X Y Z