Song name
# A B C D E F G H I J K L M N O P Q R S T U V W X Y Z

Kent - Jrnspken tab

intro:
e-----------4------[4]-----------------------|
B-----------------------4------4-------------|
G---6----------------------5-----------------|
D--------------------------------------------|
A--------------------------------------------|
E--------------------------------------------|x5


Verse:
e-----------4------[4]-----------------------|
B-----------------------4------4-------------|
G---6----------------------5-----------------|
D--------------------------------------------|
A--------------------------------------------|
E--------------------------------------------|x2

e---------------3----------------------------|
B-----4--------------4-----4-----------------|
G---------5-------5-----5--------------------|
D--------------------------------------------|
A-3------------------------------------------|
E--------------------------------------------|x2

e--------3-----------------------------------|
B-------------4-------4----------------------|
G-----------------5--------------------------|
D--------------------------------------------|
A-4----3-------------------------------------|
E--------------------------------------------|x1

e---------[3]--------------------------------|
B---------------4------4---------------------|
G-------------------5------------------------|
D-6------------------------------------------|
A--------------------------------------------|
E--------------------------------------------|

e-----------4------[4]-----------------------|
B-----------------------4------4-------------|
G---6--------6--------------5----------------|
D--------------------------------------------|
A--------------------------------------------|
E--------------------------------------------| all this three times

Chorus:
e---------------4----------------------------|
B-------6----------6-------6-----------------|
G----------6-----------6---------------------|
D--------------------------------------------|
A-4------------------------------------------|
E--------------------------------------------|x1

e------4-------------------------------------|
B-------------4-------4----------------------|
G-----------------5--------------------------|
D--------------------------------------------|
A-6------------------------------------------|
E--------------------------------------------|x1

e-----------4------[4]-----------------------|
B-----------------------4------4-------------|
G---6----------------------5-----------------|
D--------------------------------------------|
A--------------------------------------------|
E--------------------------------------------|x2 all this twice

[ ] is hit hard

---------------------------------------------------------------------------
I have'nt tabed this one out.
Credits go to Crapper @ forumet.kent.nu
All i did was transalated it some words to english and put it up here, because 
thers plenty of people looking for it.
---------------------------------------------------------------------------
Jag har inte tabat den här laten
All credit gar till Crapper @ forumet.kent.nu
Det anda jag gjort ar att oversatta nagra ord till engelska och lagt upp den
har, eftersom det är ganska manga som letat efter den.
Tap to rate this tab
 
# A B C D E F G H I J K L M N O P Q R S T U V W X Y Z