Kent - Tntarna tab

-------------------------------------------------------------------------------
			     Töntarna - Kent
-------------------------------------------------------------------------------
Tabbed by: kanal4
Email: jahnestas@hotmail.com

Tuning: Drop D

e|---------------------------------------------------------------------------|
B|---------------------------------------------------------------------------|
G|---------------------------------------------------------------------------|
D|---------------------------------------------------------------------------|
A|----2-------2----------------0-------5--------------7-------7--------------|
E|----2-------2----------------0-------5--------------7-------7--------------|

e|---------------------------------------------------------------------------|
B|---------------------------------------------------------------------------|
G|---------------------------------------------------------------------------|
D|---------------------------------------------------------------------------|
A|-7-----9-------------------------------------------------------------------|
E|-7-----9-------------------------------------------------------------------|

e|---------------------------------------------------------------------------|
B|---------------------------------------------------------------------------|
G|---------------------------------------------------------------------------|
D|---------------------------------------------------------------------------|
A|----2-------2----------------0-------5--------------7-------7--------------|
E|----2-------2----------------0-------5--------------7-------7--------------|

e|---------------------------------------------------------------------------|
B|---------------------------------------------------------------------------|
G|---------------------------------------------------------------------------|
D|---------------------------------------------------------------------------|
A|-7-----9-------------------------------------------------------------------|
E|-7-----9-------------------------------------------------------------------|

e|---------------------------------------------------------------------------|
B|---------------------------------------------------------------------------|
G|---------------------------------------------------------------------------|
D|---------------------------------------------------------------------------|
A|----10------10---------------9-------5--------------2-------2--------------|
E|----11------11---------------9-------5--------------2-------2--------------|

e|---------------------------------------------------------------------------|
B|---------------------------------------------------------------------------|
G|---------------------------------------------------------------------------|
D|---------------------------------------------------------------------------|
A|-0-----5-------------------7-------7------------7-------9------------------|
E|-0-----5-------------------7-------7------------7-------9------------------|


************************************

| /   slide up
| \   slide down
| h   hammer-on
| p   pull-off
| ~   vibrato
| +   harmonic
| x   Mute note
| b   Bend
| pb  Pre-bend
| br  Bend release
| pbr Pre-bend release
| brb Bend release bend

************************************
Tap to rate this tab
 
# A B C D E F G H I J K L M N O P Q R S T U V W X Y Z