Song name
# A B C D E F G H I J K L M N O P Q R S T U V W X Y Z

Kent - Skisser For Sommaren chords

Highlighted       Show chord diagrams
-------------------------------------------------------------------------------
			     Skisser for Sommaren - Kent
-------------------------------------------------------------------------------
Tabbed by: Kurez
Email: Reach me on UG

Tuning: Standard

Intro

e|-x-x-----3-5-3-5-3-5----6-6-6--5-5-5-5-5-5--6-6-6--5-5-5-5-5-5------------|
B|-x-x-----6-6-6-6-6-6-6--6-6-6--6-6-6-6-6-6--6-6-6--6-6-6-6-6-6------------|
G|-x-x-----5-5-5-5-5-5-5--5-5-5--5-5-5-5-5-5--5-5-5--5-5-5-5-5-5--etc-------|
D|-x-x-----0-0-0-0-0-0-0--0-0-0--0-0-0-0-0-0--0-0-0--0-0-0-0-0-0------------|
A|--------------------------------------------------------------------------|
E|--------------------------------------------------------------------------|




    Bb        F
Hur känner du nu?
Am        Dm   Bb    F
Känner du någonting?

    Bb        F
Hur känner du nu?
    Am          Dm   Bb   F
Jag väntade mig ingenting

    Bb          F            Dm            C
Och hundratusen ögon stirrar på oss, ingen ser
    Bb          F              Dm          C
Och hundratusen röster skriker efter något mer

       Bb      F
Snälla säg det igen,
    Bb      F
och säg det igen
Dm    Bb      F
(Lalalalalalalala)
       Bb      Dm           Bb      F
Snälla säg det igen, snälla säg det igen
Dm    Bb      F
(Lalalalalalalala)
       Bb      F
Snälla säg det igen,
       Bb      Dm
snälla säg det igen

    Bb        F
Hur tänker du nu?
    Am     Dm     Bb    F
Jag väntar mig en värld
    Bb        F
Hur tänker du nu?
   Am     Dm      Bb   F
Hallå, är det nån där?

   Bb           F            Dm              C
Miljoner ord försvinner ner i förrgårs svarta hål
    Bb          F           Dm            C
som hundratusen åsikter som ingen lyssnar på

       Bb      F
Snälla säg det igen,
    Bb      F
och säg det igen
Dm    Bb      F
(Lalalalalalalala)
       Bb      Dm           Bb      F
Snälla säg det igen, snälla säg det igen
Dm    Bb      F
(Lalalalalalalala)
       Bb      F
Snälla säg det igen,
    Bb      Dm
och säg det igen

Dm    Bb      F
(Lalalalalalalala)
       Bb      F
Snälla säg det igen,
       Bb      Dm
snälla säg det igen

       Bb           F  
Du vet ingenting om mig
(Snälla säg det igen)
        Bb           Dm
Jag vet ingenting om dig
(Snälla säg det igen)
       Bb           F  
Du vet ingenting om mig
(Snälla säg det igen)
        Bb           Dm
Jag vet ingenting om dig


       Bb           F  
Du vet ingenting om mig
(Snälla säg det igen)
        Bb           Dm
Jag vet ingenting om dig
(Snälla säg det igen)
       Bb           F  
Du vet ingenting om mig
(Snälla säg det igen)
        Bb           Dm
Jag vet ingenting om dig


Outro
                       let ring
e|------3-5-5-5-5-5-5-5---5-----|
B|------6-6-6-6-6-6-6-6---6-----|
G|------5-5-5-5-5-5-5-5---5-----|
D|------0-0-0-0-0-0-0-0---0-----|
A|------------------------------|
E|------------------------------|
Tap to rate this tab
 
# A B C D E F G H I J K L M N O P Q R S T U V W X Y Z