Song name
# A B C D E F G H I J K L M N O P Q R S T U V W X Y Z

Kent - Utan Dina Andetag chords

Highlighted       Show chord diagrams
Kommentar: Gmaj7 = 354433 (barré), eller 3x0002

Gitarr, intro och under vers:

  G                 Gmaj7             Em                 Em
e|-----6---6---8---|-----6---6-8-----|------------------|----------------|
B|---3---3---3---3-|---3---3---3-3-3-|-----5---5----8\--|-----5-5-5-8-8\-|
G|-0---------------|-0---------------|---4---4---4----4-|---4-4-4-4-4-4--|
D|-----------------|-----------------|-2----------------|-2--------------|
A|-----------------|-----------------|------------------|----------------|
E|-----------------|-----------------|------------------|----------------|

  C              D                  Em                Em       D
e|--------------|------------------|-----------------|----------------|
B|-----3--------|-----3------------|-----5---5---8---|----------------|
G|---0----4-----|--------------2---|---4---4---4---4-|----------------|
D|-2------------|-------5\---4---4-|-7---------------|----------------|
A|--------------|-/5-------0-------|-----------------|-7-7-7-7-7\5-5--|
E|--------------|------------------|-----------------|----------------|

Ackord
Intro:
 |G     |Gmaj7 |Em    |Em    |
 |C     |D     |Em    |Em    |

           D      G       Gmaj7
  Jag vet att du sover
                 Em
  känner värmen från din hud
                      C
  Bara lukten gör mej svag
       D  D          Em
  men jag vågar inte väcka dej nu

        D     G        Gmaj7
  Jag skulle ge dej
             Em
  allting du pekar på
                       C
  Men bara när du inte hör
         D          G    G7/B
  vågar jag säga så

                    C
  Jag kan inte ens gå
            D           Em     G
  utan din luft i mina lungor
                    C
  Jag kan inte ens stå
                   D
  när du inte ser på
       Em           C    C/B
  och genomskinlig grå
        Am        D
  blir jag, utan dina andetag

|G     |G     |

           D       G       Gmaj7
  Min klocka har stannat
             Em
  under dina ögonlock
                      C
  fladdrar drömmarna förbi
     D         Em
  inuti är du fjäderlätt och vit

        D        G  Gmaj7
  Och utan ett lju - ud
              Em
  mitt hjärta i din hand
                              C
  har jag tappat bort mitt språk
       D              G     G7/B
  det fastnar i ditt hår

                  C
  Jag kan inte ens gå
            D           E       G
  utan din luft i mina lungor
                   C
  Jag kan inte ens stå
                  D
  när du inte ser på
       Em           C     C/B
  och färglös som en tår
        Am        D
  blir jag, utan dina andetag

Solo:

      |F     |D     |G  D/F#|Em   D |
      |F     |D     |G      |G/B    |
      |C     |D     |Em     |G      |
      |C     |D     |Em     |G      |

                  C
  Jag kan inte ens gå
            D           Em      G
  utan din luft i mina lungor
                   C
  Jag kan inte ens stå
                  D
  om du inte ser på
       Em           C    C/B
  och genomskinlig grå

            Am        D       Em     G
  Vad vore jag, utan dina andetag
            Am        D       C
  Vad vore jag, utan dina andetag

G



Tap to rate this tab
 
# A B C D E F G H I J K L M N O P Q R S T U V W X Y Z