Song name
# A B C D E F G H I J K L M N O P Q R S T U V W X Y Z

Kent - Music Non Stop tab

Title:	Music Non-Stop
Band:		Kent
Album:	Hagnesta Hill

Transcribed by raphael belhache

**This is all my own work**

Intro.
Guitar 1
|------------------|-----------------|------------------------|
|------------------|-----------------|------------------------|
|------------------|-----------------|------------------------|
|--83-3-3-3-3-3-3-|-3/5-5-5-5-5-5-5-|-5/-8--8--8--8--8--8--8-|
|-105-5-5-5-5-5-5-|-5/7-7-7-7-7-7-7-|-7/10-10-10-10-10-10-10-|
|------------------|-----------------|------------------------|


|-------------------------|
|-------------------------|
|-------------------------|
|--8--8--8--8--8--8--8--8-|
|-10-10-10-10-10-10-10-10-|
|-------------------------|

Guitar 1 (Play 3 times)
|------------------|-----------------|------------------------|
|------------------|-----------------|------------------------|
|------------------|-----------------|------------------------|
|--83-3-3-3-3-3-3-|-3/5-5-5-5-5-5-5-|-5/-8--8--8--8--8--8--8-|
|-105-5-5-5-5-5-5-|-5/7-7-7-7-7-7-7-|-7/10-10-10-10-10-10-10-|
|------------------|-----------------|------------------------|
|
|Guitar 2 (Play 3 times)
|--1--3p1--3p1--1--|-3--5p3--5p3--3--|------------------------|
|--3--3---------3--|-5--5---------5--|-------3-----6-----3----|
|------------------|-----------------|-3-----3-----3-----3----|
|------------------|-----------------|------------------------|
|------------------|-----------------|------------------------|
|------------------|-----------------|------------------------|

Guitar 1
|-------------------------|
|-------------------------|
|-------------------------|
|--8--8--8--8--8--8--8--8-|
|-10-10-10-10-10-10-10-10-|
|-------------------------|
				  |
Guitar 2			  |
|-------------------------|
|-------------------------|
|-5---5---3------5-p-3----|
|-5---5-------3---------5-|
|-------------------------|
|-------------------------|


Verse (Part 1)
Guitar 1 (Play twice)
|------------------|-----------------|------------------------|
|------------------|-----------------|------------------------|
|------------------|-----------------|------------------------|
|--83-3-3-3-3-3-3-|-3/5-5-5-5-5-5-5-|-5/-8--8--8--8--8--8--8-|
|-105-5-5-5-5-5-5-|-5/7-7-7-7-7-7-7-|-7/10-10-10-10-10-10-10-|
|------------------|-----------------|------------------------|
|
|Guitar 2 (Play twice)
|--1-----------1/3-|-3----------5--3-|------------------------|
|--3-----------3/5-|-5---------------|-3----------------------|
|------------------|-----------------|-3----------------------|
|------------------|-----------------|------------------------|
|------------------|-----------------|------------------------|
|------------------|-----------------|------------------------|


Guitar 1
|-------------------------|
|-------------------------|
|-------------------------|
|--8--8--8--8--8--8--8--8-|
|-10-10-10-10-10-10-10-10-|
|-------------------------|
				  |
Guitar 2			  |
|-------------------------|
|-------------------------|
|-5---5---3------5-p-3----|
|-5---5-------3---------5-|
|-------------------------|
|-------------------------|


Verse (Part 2)
Guitar 1
|-3--------------|-3--------------|-5--------------|----------------|
|-3--------------|-5--------------|-6--------------|----------------|
|-3--------------|-5--------------|-7--------------|----------------|
|-5--------------|-5--------------|-7--------------|----------------|
|-5--------------|-3--------------|-5--------------|----------------|
|-3--------------|----------------|----------------|----------------|
|											  |
|Guitar 2										  |
|----------------|----------------|----------------|----------------|
|----------------|----------------|----------------|----------------|
|----------------|----------------|----------------|----------------|
|-5---3-5-5/7-5-3|----------------|----------------|----------------|
|---5------------|-3---3-5-5/7-5-3|-5---3-5-5/7-5-3|-5---3-5-5/7-3-5|
|----------------|---5------------|---5------------|---5------------|


Guitar 1
|-3--------------|-3--------------|-3--------------|----------------|
|-3--------------|-5--------------|-3--------------|----------------|
|-3--------------|-5--------------|-3--------------|----------------|
|-5--------------|-5--------------|-5--------------|----------------|
|-5--------------|-3--------------|-5--------------|----------------|
|-3--------------|----------------|-3--------------|----------------|
|											  |
|Guitar 2										  |
|----------------|----------------|----------------|----------------|
|----------------|----------------|----------------|----------------|
|----------------|----------------|----------------|----------------|
|-5---3-5-5/7-5-3|----------------|-5---3-5-5/7-5-3|-5---3-5-5/7-5-3|
|---5------------|-3---3-5-5/7-5-3|---5------------|---5------------|
|----------------|---5------------|----------------|----------------|

Guitar 1
|-5--------------|----------------|
|-6--------------|----------------|
|-7--------------|----------------|
|-7--------------|----------------|
|-5--------------|----------------|
|----------------|----------------|
|					    |
|Guitar 2				    |
|----------------|----------------|
|----------------|----------------|
|----------------|----------------|
|----------------|----------------|
|-5---3-5-5/7-5-3|-5---3-5-5/7-5-3|
|---5------------|---5------------|


Chorus
Guitar 1
|---------------|---------------|---------------|----------------|
|---------------|---------------|---------------|----------------|
|---------------|---------------|---------------|----------------|
|---------------|-5--5----------|---------------|----------------|
|-5---8-5--8-5--|---------------|-3---5-3--5-3--|-5--------------|
|---------------|---------------|---------------|----------------|
|										     |
|Guitar 2									     |
|---------------|-8-6-6-6-6-6-6-|---------------|----------------|
|---------------|---------------|---------------|-8--6--5--------|
|-7-7-7-7-7-7-7-|-5-3-3-3-3-3-3-|-5--5-5-5-5-5--|----------5-5/7-|
|---------------|---------------|---------------|-5--3--2--------|
|-5-5-5-5-5-5-5-|---------------|-3--3-3-3-3-3--|----------3-3/5-|
|---------------|---------------|---------------|----------------|


Guitar 1
|---------------|---------------|---------------|----------------|
|---------------|---------------|---------------|----------------|
|---------------|---5-----------|---------------|----------------|
|---------------|-5---5---------|---------------|----------------|
|-5---8-5--8-5--|---------------|-3---5-3--5-3--|-5--------------|
|---------------|---------------|---------------|----------------|
|										     |
|Guitar 2									     |
|---------------|-8-6-6-6-6-6-6-|---------------|----------------|
|---------------|---------------|---------------|-8---6---5------|
|-7-7-7-7-7-7-7-|-5-3-3-3-3-3-3-|-5--5-5-5-5-5--|-------------5--|
|---------------|---------------|---------------|-5---3---2------|
|-5-5-5-5-5-5-5-|---------------|-3--3-3-3-3-3--|-------------3--|
|---------------|---------------|---------------|----------------|

Guitar 1
|-----------------|
|-----------------|
|-----------------|
|-----------------|
|-----------------|
|-----------------|
|			|
|Guitar 2  (second time only)
|-----------^-----|
|-----------^-----|
|-5-5/7-7---7-10p7|
|-----------------|
|-3-3/5-5---------|
|-----------------|

Repeat Verse Part 1 and 2
Repeat Chorus

Solo
Guitar 2
|----------------|----------------|----------------|----------------|
|----------------|------/10-------|----------------|----------------|
|-10/12-12----12-|----------12-10-|-7--------------|----------7-10p7|
|----------------|----------------|----------------|----------------|
|----------------|----------------|------------10--|-8--------------|
|----------------|----------------|----------------|----------------|

										End solo
|----------------|----------------|----------------|----------------|
|----------------|------/10-------|----------------|----------------|
|-10/12-12----12-|----------12-10-|----------------|----------------|
|----------------|----------------|-12------------|----------------|
|----------------|----------------|----------------|----------------|
|----------------|----------------|----------------|----------------|

Guitar 2: play intro part twice

Guitar 1 and 2: play verse part 2

Final Chorus
Guitar 1
|---------------|---------------|---------------|----------------|
|---------------|---------------|---------------|----------------|
|---------------|---------------|---------------|----------------|
|---------------|-5--5----------|---------------|----------------|
|-5---8-5--8-5--|---------------|-3---5-3--5-3--|-5--------------|
|---------------|---------------|---------------|----------------|
|										     |
|Guitar 2									     |
|---------------|-8-6-6-6-6-6-6-|---------------|----------------|
|---------------|---------------|---------------|-8--6--5--------|
|-7-7-7-7-7-7-7-|-5-3-3-3-3-3-3-|-5--5-5-5-5-5--|----------5-5/7-|
|---------------|---------------|---------------|-5--3--2--------|
|-5-5-5-5-5-5-5-|---------------|-3--3-3-3-3-3--|----------3-3/5-|
|---------------|---------------|---------------|----------------|



Guitar 1
|---------------|---------------|---------------|----------------|
|---------------|---------------|---------------|----------------|
|---------------|---5-----------|---------------|----------------|
|---------------|-5---5---------|---------------|----------------|
|-5---8-5--8-5--|---------------|-3---5-3--5-3--|-5--------------|
|---------------|---------------|---------------|----------------|
|										     |
|Guitar 2									     |
|---------------|-8-6-6-6-6-6-6-|---------------|----------------|
|---------------|---------------|---------------|-8--6--5--------|
|-7-7-7-7-7-7-7-|-5-3-3-3-3-3-3-|-5--5-5-5-5-5--|----------5-5/7-|
|---------------|---------------|---------------|-5--3--2--------|
|-5-5-5-5-5-5-5-|---------------|-3--3-3-3-3-3--|----------3-3/5-|
|---------------|---------------|---------------|----------------|



Guitar 1
|---------------|---------------|---------------|----------------|
|---------------|---------------|---------------|----------------|
|---------------|---------------|---------------|----------------|
|---------------|-5--5----------|---------------|----------------|
|-5---8-5--8-5--|---------------|-3---5-3--5-3--|-5--------------|
|---------------|---------------|---------------|----------------|
|										     |
|Guitar 2									     |
|---------------|-8-6-6-6-6-6-6-|---------------|----------------|
|---------------|---------------|---------------|-8--6--5--------|
|-7-7-7-7-7-7-7-|-5-3-3-3-3-3-3-|-5--5-5-5-5-5--|----------5-5/7-|
|---------------|---------------|---------------|-5--3--2--------|
|-5-5-5-5-5-5-5-|---------------|-3--3-3-3-3-3--|----------3-3/5-|
|---------------|---------------|---------------|----------------|


Guitar 1
|---------------|---------------|---------------|----------------|
|---------------|---------------|---------------|----------------|
|---------------|---5-----------|---------------|-7-7-7-7-7-7-7-7|
|---------------|-5---5---------|---------------|----------------|
|-5---8-5--8-5--|---------------|-3---5-3--5-3--|----------------|
|---------------|---------------|---------------|----------------|
|										     |
|Guitar 2									     |
|---------------|-8-6-6-6-6-6-6-|---------------|----------------|
|---------------|---------------|---------------|-8--6--5--------|
|-7-7-7-7-7-7-7-|-5-3-3-3-3-3-3-|-5--5-5-5-5-5--|----------5--7--|
|---------------|---------------|---------------|-5--3--2--------|
|-5-5-5-5-5-5-5-|---------------|-3--3-3-3-3-3--|----------3--5--|
|---------------|---------------|---------------|----------------|

Guitar 1
|----------------|----------------|----------------|----------------|
|----------------|----------------|----------------|-8--b-10--r-(8)-|
|-7-7-7-7-7-7-7-7|-7-7-7-7-7-7-7-7|-7-7-7-7-7-7-7-7|----------------|
|----------------|----------------|----------------|----------------|
|----------------|----------------|----------------|----------------|
|----------------|----------------|----------------|----------------|
|											  |
|Guitar 2										  |
|----------------|----------------|----------------|----------------|
|-6---5----------|-6---5----------|-6---5----------|----------------|
|---------5---7--|---------5---7--|---------5---7--|----------------|
|-3---2----------|-3---2----------|-3---2----------|----------------|
|---------3---5--|---------3---5--|---------3---5--|----------------|
|----------------|----------------|----------------|----------------|

Guitar 1
|----------------||
|-8--b-10--r-(8)-||
|----------------||
|----------------||
|----------------||
|----------------||
|		     ||
|Guitar 2	     ||	The End.
|----------------||
|----------------||
|----------------||
|----------------||
|-----------5----||
|----------------||
Tap to rate this tab
# A B C D E F G H I J K L M N O P Q R S T U V W X Y Z