Song name
# A B C D E F G H I J K L M N O P Q R S T U V W X Y Z

Kent - Ff tab

Intro (0:00-0:15)

|-------------------------------|
|-------------------------------|
|-------------------10/7--------|
|---3/5--5-5-5-5----8-/5--------| x4
|---3/5--5-5-5-5----8-/5--------|
|---1/3--3-3-3-3----------------|


Bridge (0:43-0:46)

|-------------------------------|
|--8----------8-----------------|
|-------------------------------|
|----5--5-5-5----5--5--5-5-5----| x2
|-------------------------------| 
|-------------------------------|


Pre-Chorus (0:47-1:01)

|--------------------------|-----------------------|
|--------------------------|-----------------------|
|--------------------------|-----------------------|
|-1-(x16)--7-(x8)--8-(x8)--|-1(x16)--7(x8)--1(x8)--|
|--------------------------|-----------------------|
|--------------------------|-----------------------|


Chorus (1:02-1:20)

|-------------------------------------|    |--------------------------|
|-------------------------------------|    |--------------------------|
|----7----5----3--------5----3----2---|    |---7---5---3----2---2h3p2-|
|-5----5----5--------3----3----3------| x2 |-5---5---5----3---3-------|
|-------------------------------------|    |--------------------------|
|-------------------------------------|    |--------------------------|
                                            (Last part of the Chorus)

Bridge (1:21-1:29)

|-------------------------------|
|--8----------8-----------------|
|-------------------------------|
|----5--5-5-5----5--5--5-5-5----| x2
|-------------------------------| 
|-------------------------------|


Verse (1:30-1:55)

|--x-3----x-5------------------------|
|--x-4----x-6----x-8---8-8--10-10--8-|
|--x-3----x-5----x-7---7-7--7--7---7-|
|--x-5----x-7----x-8---8-8--8--8---8-|
|------------------------------------|
|------------------------------------| 

|--x-3----x-5----x-3----|-3--5-----|
|--x-4----x-6----x-3----|-4--6-----|
|--x-3----x-5----x-3----|-3--5-----|
|--x-5----x-7----x-5--x2|-5--7-----|
|-----------------------|----------|
|-----------------------|----------| 
                         (Last Part of the Verse)


Bridge(1:55-1:59)

|-------------------------------|
|--8----------8-----------------|
|-------------------------------|
|----5--5-5-5----5--5--5-5-5----| 
|-------------------------------| 
|-------------------------------|
 (Only once, this time)



Pre-Chorus (2:00-2:14)

|--------------------------|-----------------------|
|--------------------------|-----------------------|
|--------------------------|-----------------------|
|-1-(x16)--7-(x8)--8-(x8)--|-1(x16)--7(x8)--1(x8)--|
|--------------------------|-----------------------|
|--------------------------|-----------------------|


Chorus (2:15-2:34)

|-------------------------------------|    |--------------------------|
|-------------------------------------|    |--------------------------|
|----7----5----3--------5----3----2---|    |---7---5---3----2---2h3p2-|
|-5----5----5--------3----3----3------| x2 |-5---5---5----3---3-------|
|-------------------------------------|    |--------------------------|
|-------------------------------------|    |--------------------------|
                                            (Last part of the Chorus)


Bridge (2:35-2:37)

|-------------------------------|
|--8----------8-----------------|
|-------------------------------|
|----5--5-5-5----5--5--5-5-5----| 
|-------------------------------| 
|-------------------------------|
 (Only once, this time as well)



Solo (2:38-2:53)

 (1st Guitar)
|---------------------------------------------------|
|---------------------------------------------------|
|-13b15--13-11--13-13---11--13b15--13-11--13b15--11-|
|---------------------------------------------------|
|---------------------------------------------------|
|---------------------------------------------------|

|---17/18\17--15-----------|
|-----------------15-11-15-|
|--------------------------|
|--------------------------|
|--------------------------|
|--------------------------|





 (2nd Guitar)
|--------------------------------------------------------|
|--------------------------------------------------------|
|-11-13-11--10/11\10--8--10-10---8--10/11\10--8--10/11--8|
|--------------------------------------------------------|
|--------------------------------------------------------|
|--------------------------------------------------------|

|-------------------------|
|-------------------------|
|----10/11\10---8---------|
|-------------------7-5-7-|
|-------------------------|
|-------------------------|


Chorus (3:09-3:27)

|-------------------------------------|    |--------------------------|
|-------------------------------------|    |--------------------------|
|----7----5----3--------5----3----2---|    |---7---5---3----2---2h3p2-|
|-5----5----5--------3----3----3------| x2 |-5---5---5----3---3-------|
|-------------------------------------|    |--------------------------|
|-------------------------------------|    |--------------------------|
                                            (Last part of the Chorus)

Bridge(3:28-3:32)

|-------------------------------|
|--8----------8-----------------|
|-------------------------------|
|----5--5-5-5----5--5--5-5-5----| 
|-------------------------------| 
|-------------------------------|
 (Only once, this time as well)




Ending (3:33-4:05)

|--------------------------------------|--------------------------------|
|-4/16--16-16-16-----8/15--15-15-15----|-----------------8--------------|
|--------------------------------------|--5-5-8-5-8-5-------5--5--5-5-5-|
|--------------------------------------|--------------------------------|
|--------------------------------------|--------------------------------|
|--------------------------------------|--------------------------------|
 (You play the highest notes (16th fret and 15th fret,
  with the "Oh la la la")



Tabs made by Stianerdal
Tap to rate this tab
# A B C D E F G H I J K L M N O P Q R S T U V W X Y Z