Song name
# A B C D E F G H I J K L M N O P Q R S T U V W X Y Z

Kent - Vlgrningar Illdd chords

Highlighted       Show chord diagrams
Intro:

e|----------------|------3---------|------3--------|------0h1------|
B|--0---1---0-----|--1-------1-0-1-|--1-0-----1---1|----1-----1---1|
G|----------------|----2-----------|0-----------0--|--2---------2--|
D|----2---2---2---|3---------------|---------------|3--------------| x2
A|0---------------|----------------|---------------|---------------|
E|----------------|----------------|---------------|---------------|

   Am                F   G
Du kom till mig mitt i en dröm
       F          E      Am
Och sa: rädda mig håll mig gömd
    Am            F     G
Jag väntar där en mardrömsnatt
    Am/F#        Am/F         Am
Jag hör hur dom går, jag hör dörrar slå
     Am/F#     Am/F
Ett rep i min hand och regn i mitt hår

| Am   | Fadd9 | G     | Dm    |

      F             Dm
Det är dåd som det här
        C         G/B G        F
som förföljer mig vart jag än går
         E7                     Am        D7
och jag flyr i skydd av mitt privata moln
         F          Dm
Jag ska stjäla en skatt
         C          G/B G          F
Den som döljer sig vid regnbågens slut
        E7
Den är min, den är du

Bridge:

 |Am              |Fadd9           |G               |Fmaj7           |
e|--------0-------|----------------|----------------|----------------|
B|2---------------|3-------1-------|0---------------|----------------|
G|----------------|----------------|----------0---2-|----------------|
D|----------------|----------------|------------2---|----------------|

 Am            F    G
Kom med mig, inte ett ljud
    F               E7  Am
Han sover lätt med tända ljus
   Am              F    G
Så klättra nu, här ta min hand
    Am/F#          Am/F        Am
Och känn hur mitt blod viskar sanning om mig
   Am/F#           Am/F
En snabb kolsvart flod som rusar för dig

| Am   | Fadd9 | G     | Dm    |

      F             Dm
Det är dåd som det här
        C         G/B G        F
som förföljer oss vart vi än går
        E7                     Am        D7
och vi flyr i skydd av vårt privata moln
          F          Dm
Vi ska stjäla en skatt
         C          G/B G          F
Den som döljer sig vid regnbågens slut
        E7
Ett perfekt substitut

Outro:

 | Am    F  G | G  | F     Em  Am | Am  | < Repeat this


© Kent and Kent.nu 2005.
Tabbed by Glarr for www.Ultimate-Guitar.com
Tap to rate this tab
# A B C D E F G H I J K L M N O P Q R S T U V W X Y Z