Song name
# A B C D E F G H I J K L M N O P Q R S T U V W X Y Z

Kent - Berg And Dalvan Rollercoaster tab

Help us improve GuitareTab! Take a short survey!
intro: |Am    |Em    |Am    |Em    |
       |Am    |Em    |C     |C     |

   Am            Em                   C
e--------------------------------    -------------------|
B-------0------------------------    -------------------|
G---5------5---0-------0---------    --------0----------|
D-----7------7-----0-------0---0-    ---0-------0----0--|
A-0------------------9---9---9---    -----10------10----|
E----------------7--------------- x3 -8-----------------| x2

      Am             Em
  p vgen tvttas spren bort
     A7/C#        C
  en olycka blir minnen blott
   Am               Em
  rusningstid strax innan jul
     A7/C#            C
  s glmmer nn ett varningsljus


|C    |

                Am
  Nr jag blir gr
Em                Am            Em
  nr jag faller, orkar du fr tv?
        D         Am
  nr idag blir igr
Em              C            G    D/F#
  kommer du att lska mig nd?


|C     |D     |Em    |D     | 2x

 Gitarr:
G-5-3-4-0---------5-3-4-0-------------5-3-4-0---------5-3-4-0------------|
D----------/7--5-----------/2--0---------------/7--5-----------/2--0-----|
A---------------------------------3-----------------------------------0--|

|Am    |Em    |Am    |Em    |
|Am    |Em    |C     |C     |


      Am                 Em
  en gammal sng fr en helt ny text
     A7/C#            C
  en cklig rst som billig sex
       Am           Em
  och jag har inga vnner kvar
  A7/C#          C
  visst r livet underbart


                Am
  Nr jag blir gr
Em                Am            Em
  nr jag faller, orkar du fr tv?
        D         Am
  nr idag blir igr
Em              C            G    D/F#
  kommer du att lska mig nd?

 Gitarr:
G-5-3-4-0---------5-3-4-0-------------5-3-4-0---------5-3-4-0------------|
D----------/7--5-----------/2--0---------------/7--5-----------/2--0-----|
A---------------------------------3-----------------------------------3--| 2x

|C    |D    |Em   |D    | 4x

C                   D                     Em     D
  det spelar ingen roll om du hller mig hrt
C                   D               Em       D
  ingen kommer att minnas om hundra r
C                       D              Em       D
  jag r rdd att man glmmer, glmmer allt
C                      D        Em
  som vi glmde att vi lskade varann

       D          C           D      Em
  hll ut, jag behver dig
       D          C           D      Em
  hll ut, jag behver dig
       D          C           D      Em
  hll ut, jag behver dig
       D       C          D    Em
  hll ut, st ut med mig, st ut med mig
D        C       D        Em        D
  jag behver dig, jag behver dig
      C         D        Em        D
  st ut med mig, jag behver dig
      C         D     Em          D
  jag lskar dig, st ut med mig

         C       D     Em      D
  jag behver dig, st ut med mig
         Am   Em/B    Am    Em/B
  jag behver...     Dig
Related for Berg And Dalvan Rollercoaster tab