Song name
# A B C D E F G H I J K L M N O P Q R S T U V W X Y Z

Kent - Quiet Heart tab

Intro: |Ab  Bbm   |Ab   Bbm   | 2x


Ab            Bbm             Ab        Bbm
  There was a time when I was lost in myself
Ab            Bbm             Ab        Fm
  You took my hand became my guide
Ab            Bbm      Ab        Bbm
  There was a time you needed my help
Ab           Bbm         Fm      Eb
  I guess my Ego made me blind
Db             Ab/C              Bbm
  It´s not the rain it´s not the streetlights
Db                Ab/C            Eb
  That makes your skin so pale at night

            Ab
  It´s your quiet heart
           Eb
  And your silence
          Bbm       Db         Ab   Bbm
  As your teardrops   stain my sheets
        Ab                      Eb
  Let´s take a trip through the wires
       Bbm      Db
  Your dream is gone you are free

|Ab  Bbm   |Ab   Bbm   |

  stay free...

|Ab  Bbm   |Ab   Bbm   |


Ab            Bbm             Ab         Bbm
  There was a time I had your life in my hands
Ab            Bbm              Ab   Fm
  And you had life left in your eyes
Ab            Bbm                Ab       Bbm
  There was a time I caught your hiding inside
Ab               Bbm                 Fm    Eb
  From something shining through the blinds
Db             Ab/C          Bbm
  It´s not the shadow by the red lights
Db              Ab/C               Eb
  That makes my skin crawl late at night

            Ab
  It´s your quiet heart
           Eb
  And your silence
          Bbm      Db        Ab   Bbm
  As your teardrops stain my sheets
        Ab                      Eb
  Let´s take a trip through the wires
       Bbm      Db
  Your dream is gone you are free

Solo, (se tab nedan):
  |Fm  Eb  |Db  Ab  |
  |Fm  Eb  |Bbm  Ab | 2x


Db             Ab/C              Bbm
  It´s not the rain it´s not the streetlights
Db                Ab/C            Eb
  That makes your skin so pale at night

            Ab
  It´s your quiet heart
            Eb
  It´s your silence
          Bbm       Db       Ab  Bbm
  As your teardrops stain my sheets
        Ab                      Eb
  Let´s take a trip through the wires
       Bbm      Db          Ab   Bbm
  Your dream is gone you are free

            Ab
  It´s your quiet heart
           Eb
  And your silence
          Bbm       Db       Ab  Bbm
  As your teardrops stain my sheets
        Ab                      Eb
  Let´s take a trip through the wires
       Bbm     Db
  Our love is dead you are free

|Fm  Eb  |Db   Ab |
|Fm  Eb  |Bbm  Ab |

|Fm  Eb  |Db   Ab |
|Fm  Eb  |Bbm     |

|Db      |

|Ab  Bbm   |Ab   Bbm   | 4x

Ab


 Under refrängen:
e|------5p3-----5p3-----5p3-----5p3---|------0h2-----0h2-----0h2-----0h2--|
B|------------------------------------|-----------------------------------|
G|--2h4-----2h4-----2h4-----2h4-------|----2-------2-------2-------2------|
D|------------------------------------|--0-------0-------0-------0--------|
A|------------------------------------|-----------------------------------|
E|------------------------------------|-----------------------------------|

e|------5p3-----5p3-----5p3-----5p3---|------5p3-----5p3-----2h3-----2h3--|
B|------------------------------------|-----------------------------------|
G|--2h4-----2h4-----2h4-----2h4-------|--2h4-----2h4-----2h4-----2h4------|
D|------------------------------------|-----------------------------------|
A|------------------------------------|-----------------------------------|
E|------------------------------------|-----------------------------------|

e|------5p3-----5p3-----5p3-----5p3---|------0h2-----0h2-----0h2-----0h2--|
B|------------------------------------|-----------------------------------|
G|--2h4-----2h4-----2h4-----2h4-------|----2-------2-------2-------2------|
D|------------------------------------|--0-------0-------0-------0--------|
A|------------------------------------|-----------------------------------|
E|------------------------------------|-----------------------------------|

e|------5p3-----5p3-----5p3-----5p3---|
B|------------------------------------|
G|--2h4-----2h4-----2h4-----2h4-------|
D|------------------------------------|
A|------------------------------------|
E|------------------------------------|

Efter första refrängen
e|------5p3-----5p3-----2h3-----2h3---|------5p3-----5p3-----0h3-----0h3---|
B|------------------------------------|------------------------------------|
G|--2h4-----2h4-------2-------2-------|--2h4-----2h4-------2-------2-------|
D|------------------0-------0---------|------------------0-------0---------|
A|------------------------------------|------------------------------------|
E|------------------------------------|------------------------------------|

e|------5p3-----5p3-----0h3-----0h3---|------5p3-----5p3-----0h3-----0h3---|
B|------------------------------------|------------------------------------|
G|--2h4-----2h4-------2-------2-------|--2h4-----2h4-------2-------2-------|
D|------------------0-------0---------|------------------0-------0---------|
A|------------------------------------|------------------------------------|
E|------------------------------------|------------------------------------|

 Mellan tredje och fjärde refrängen:
e|------5p3-----5p3-----2p3-----2p3---|
B|------------------------------------|
G|--2h4-----2h4-------2-------2-------|
D|------------------0-------0---------|
A|------------------------------------|
E|------------------------------------|
Denna gitarr spelar antingen uppstämt ett band eller med capo på första 
bandet


Solo:

e|---------------------------------------------------------------|
B|---------------------------------------------------------------|
G|--/13--13p12---10--6/8\6-5----/13--13p12-12-12/15--15\13-13\---|
D|---------------------------------------------------------------|
A|---------------------------------------------------------------|
E|---------------------------------------------------------------|

e|-------------------------------------------------------|
B|-----------------------------------6-------------------|
G|--/13--13p12-12\10--6/8\6-5---5-5---5/8\5--5\3\1-------|
D|-------------------------------------------------------|
A|-------------------------------------------------------|
E|-------------------------------------------------------|


Tap to rate this tab
 
# A B C D E F G H I J K L M N O P Q R S T U V W X Y Z