Song name
# A B C D E F G H I J K L M N O P Q R S T U V W X Y Z

Kenyo - Simulan Na Natin tab

SIMULAN NA NATIN by Kenyo


INTRO:

guitar 1: E-BM7-(2x)

guitar 2:

e|-----------------0-/4----|
B|-5/7\5-4--------------4--|
G|---------4/6\4-6---------|
D|-------------------------|
A|-------------------------|
E|-------------------------|


VERSE:
E    BM7       E      BM7
 Kasalanan bang maglambingan
E           BM7   E         BM7
 ang nagmamahalan, walang pakialam


CHORUS:
C#7                    G#
 Simulan, simulan, simulan
F#              G#
 habang walang nakatingin
C#7                    G#
 Simulan, simulan, simulan
F#               G#
 bago pa man may dumating
C#7                    G#
 Simulan, simulan, simulan
         F#              G#
 nah nah nah nah nah nah natin


ADLIB: EM7-BM7

e|-12p11--------------------------------|
B|-------12-12/14-----------------------|
G|----------------9h10p9----------------|
D|-----------------------9h11p9---------|
A|------------------------------9/11-9--|
E|--------------------------------------|

e|-------7/9-7-|
B|-7/9\7-7/9---|
G|-7/9\7-------|
D|-------------|
A|-------------|
E|-------------|


BRIDGE:
 AM7           E
 Dahan, dahan, dahan-dahan 2x
 AM7           E
 Dahan, dahan, dahan-dahan 2x


Fill in.. AM7-E

e|-9-7---    -9-7----------|
B|-------    ---------12+--|
G|-----9- 8x -------9------|
D|-------    -----9--------|
A|-------    --------------|
E|-------    --------------|

etc..

note: di ko sigurado yung sa chorus...

h - hammer on
p - pull off
/ - slide pataas
\ - slide pababa
+ - harmonics (tama bang symbol ng harmonics to?)


NITRAM
05-11-10
4:07 PM
Tap to rate this tab
# A B C D E F G H I J K L M N O P Q R S T U V W X Y Z