Song name
# A B C D E F G H I J K L M N O P Q R S T U V W X Y Z

Kerbdog - Retro Ready tab

Help us improve GuitareTab! Take a short survey!
Intro (Bass)
e--------------------|-----------------|-------------------|---------------|
B--------------------|-----------------|-------------------|---------------|
G--------------------|-----------------|-------------------|---------------|
D--------------------|-----------------|-------------------|---------------|
A-------------101010-|-----------------|------------121212-|-7777777-------|
D-99999--777---------|-22222222--------|-99999-777---------|---------------|


Intro (Guitar)
e--------------------|-----------------|-------------------|---------------|
B--------------------|-----------------|-------------------|---------------|
G-4------------------|--2--------------|--9----------------|---------------|
D-4-x8---------------|--2--------------|--9-x8-------------|---------------|x2
A-2------------------|--0--------------|--7----------------|---------------|
D--------------------|-----------------|-------------------|---------------|


e--------------------|-----------------|-------------------|---------------|
B--------------------|-----------------|-------------------|---------------|
G-4------------------|-----------------|--9----------------|---------------|
D-4-x8---------------|-----------------|--9-x8-------------|---------------|x4
A-2------------------|-----------------|--7----------------|---------------|
D--------------------|-----------------|-------------------|---------------|


e--------------------|-----------------|-------------------|---------------|
B--------------------|-----------------|-------------------|---------------|
G--------------------|-----------------|-------------------|---------------|
D-0-7-0-7-0----------|--9999-----------|--5555-------------|---------------|x4
A-0-7-0-7-0----------|--9999-----------|--5555-------------|---------------|
D-0-7-0-7-0----------|--9999-----------|--5555-------------|---------------|


(Guitar)
e---------5----------|-----------5-----|----------5--------|---------------|
B------7-------------|--------7--------|-------7-----------|---------------|
G--------------------|-----------------|-------------------|---------------|
D--------------------|-----------------|-------------------|-9---5555------|
A--------------------|-----------------|-------------------|-9---5555------|
D--------------------|-----------------|-------------------|-9---5555------|


(Bass)
e--------------------|-----------------|-------------------|---------------|
B--------------------|-----------------|-------------------|---------------|
G--------------------|-----------------|-------------------|---------------|
D--------------------|-----------------|-------------------|---------------|
A--------------------|-----------------|-------------------|---------------|
D-0-7-0-7-0---9-9-5--|-0-7-0-7-0--9-9-5|-0-7-0-7-0---9-9-5-|-9---5555------|


e--------------------|-------------------|-------------------|---------------|
B--------------------|-------------------|-------------------|---------------|
G--------------------|-------------------|-------------------|---------------|
D-0-7-0-7-0----------|--9999-------------|--5555-------------|---------------|x2
A-0-7-0-7-0----------|--9999-------------|--5555-------------|---------------|
D-0-7-0-7-0----------|--9999-------------|--5555-------------|---------------|


e--------------------|-------------------|-------------------|---------------|
B--------------------|-------------------|-------------------|---------------|
G--------------------|-------------------|-------------------|---------------|
D-999999999999--7----|-999999999999--7---|---55555--77777----|-99999999999---|
A-999999999999--7----|-999999999999--7---|---55555--77777----|-99999999999---|
D-999999999999--7----|-999999999999--7---|---55555--77777----|-99999999999---|


e------------------------|------------------------|------------------------|------------------------|
B------------------------|------------------------|------------------------|------------------------|
G------------------------|------------------------|------------------------|------------------------|
D-0000--7777--9999--5555-|-0000--7777--9999--5555-|-0000--7777--9999--5555-|-0000--7777--9999--5555-|
A-0000--7777--9999--5555-|-0000--7777--9999--5555-|-0000--7777--9999--5555-|-0000--7777--9999--5555-|
D-0000--7777--9999--5555-|-0000--7777--9999--5555-|-0000--7777--9999--5555-|-0000--7777--9999--5555-|


(Clean)
e--------------------|-----------------|-------------------|---------------|
B--------------------|-----------------|---10101010--------|---------------|
G--------------------|-----------------|-------------------|---------------|
D-------9999999------|---9999999-------|---9999999---------|---------------|
A-------9999999------|---9999999-------|---9999999---------|---------------|
D-------9999999------|---9999999-------|---9999999---------|---------------|


e--------------------|-----------------|-------------------|---------------|
B--------------------|-----------------|-------------------|---------------|
G-4------------------|-----------------|--9----------------|---------------|
D-4-x8---------------|-----------------|--9-x8-------------|---------------|x4
A-2------------------|-----------------|--7----------------|---------------|
D--------------------|-----------------|-------------------|---------------|


e--------------------|-----------------|-------------------|---------------|
B--------------------|-----------------|-------------------|---------------|
G-4------------------|--2--------------|--9----------------|---------------|
D-4-x8---------------|--2--------------|--9-x8-------------|---------------|x4
A-2------------------|--0--------------|--7----------------|---------------|
D--------------------|-----------------|-------------------|---------------|


e--------------------|-----------------|-------------------|---------------|
B--------------------|-----------------|-------------------|---------------|
G--------------------|-----------------|-------------------|---------------|
D-0-7-0-7-0----------|--9999-----------|--5555-------------|---------------|
A-0-7-0-7-0----------|--9999-----------|--5555-------------|---------------|
D-0-7-0-7-0----------|--9999-----------|--5555-------------|---------------|

FADE OUT


www.kerbdog.com
Related for Retro Ready tab