Song name
# A B C D E F G H I J K L M N O P Q R S T U V W X Y Z

Keren Ann - Lay Your Head Down tab

-----------------------------------------------------------------------------
                        Lay Your Head Down - Keren Ann
-----------------------------------------------------------------------------

Tabbed by: Mathias_705
Email: mafr90@hotmail.com

Tuning: Standard

The accoustic and relaxing song "Lay Your Head Down" by Keren Ann. This is the second 
I have ever tabbed. Please email me for feedback or if you notice any errors, thanks :-)


Intro/Main Riff, used through the whole song:

e|-----------------|
B|-----------------|
G|--------------0--| It sounds like there are more tones after the 0,
D|------4----------| but it's actually just two hand-claps you hear.
A|--5--5------5----|
E|--------3--------|

(Play the first "5" and "3" a bit harder than the rest)


After the intro has been played twice, it goes something like this:

e|----------------------------------------|
B|----------------------------------------|
G|--------------------------0------0------|
D|------4------4--------------------------|
A|----5------5-----5------5------5-----5--|
E|--3-----(3)-----3-----3-----(3)----3----|

I'm not really sure about the solo though, but something like this should sound ok:

e|----------------------------------------|
B|----------------------------------------|
G|--6b-6b---------------------------------|
D|--------7-7-7-7-7-/10--7-7-7-7-7-7-/10--|
A|----------------------------------------|
E|----------------------------------------|

And then, I'm pretty sure the solo ends like this:

e|-----------------------|
B|-----------------------|
G|--6-7-6-7-6-7-6-7/9-7--|
D|-----------------------|
A|-----------------------|
E|-----------------------|

************************************

| /   slide up
| \   slide down
| h   hammer-on
| p   pull-off
| ~   vibrato
| +   harmonic
| x   Mute note
| b   Bend
| pb  Pre-bend
| br  Bend release
| pbr Pre-bend release
| brb Bend release bend

************************************
Tap to rate this tab
# A B C D E F G H I J K L M N O P Q R S T U V W X Y Z