Keren Ann - Not Going Anywhere tab

\---Song:-Not-Going-Anywhere----------\
 \---Composer:-Keren-Ann---------------\
  \---Transcription-by:Christian Liang--\
  /---E-Mail:christian.liang@gmail.com--/
 /---http://www.chrisliang.com---------/
/---Enjoy!----------------------------/

==========================================================================
                     Not Going Anywhere by Keren Ann
==========================================================================

CAPO (3rd Fret)

(Left Hand)

Chords of the INTRO and CHORUS:        Chords of the VERSE:

               
E|--3---2--|-1---0----------|--0---3--|--3---3---3---3---3---0---3------|
B|--3---3--|----------4---0-|--1---1--|--3---1---3---1---3---1---1------|
G|--0---4--|---2--------3---|--2---0--|--0---0---0---0---0---0---0------|
D|--0---0--|----------------|--2---1--|--0---1---0---1---0---1---1------|
A|------2--|----------------|--0---0--|------0-------0---2---0---0------|
E|--3------|-1-----0--0-----|---------|--3-------3----------------------|

L   4   2    2 3      4 3      1   4     4   4   4   4   4   3   4
    3   3    1                 3   2     3   2   3   3   3   1   2
    2   4                      2   1     2   1   2   1   1       1
        1

(Right Hand)

Plucking

E|-------X---------|
B|-X-------X-----X-|
G|-----X-------X---|
D|---X-------X-----|
A|-----------------|
E|-X-------X-------|

R  a i m a a i m a
   p       p


Note
Song is made of Arpeggios or Broken chords. 
More challenging for the left hand (chords). 
Right hand pattern remains the same. 
Try Different Patterns
Capo on 3rd fret. No barre Chords!



======
Legend
======
Right                 
p = pulgar = thumb    
i = indice = index     
m = medio = middle     
a = anular = ring      
       
  

======
Lyrics
======

This is why I always wonder
I'm a pond full of regrets 
I always try to not remember rather than forget 

This is why I always whisper
When vagabonds are passing by
I tend to keep myself away from their goodbyes 

Tide will rise and fall along the bay
And I'm not going anywhere
I'm not going anywhere 
People come and go and walk away
But I'm not going anywhere
I'm not going anywhere 

This is why I always whisper 
I'm a river with a spell 
I like to hear but not to listen, 
I like to say but not to tell 

This is why I always wonder 
There's nothing new under the sun 
I won't go anywhere so give my love to everyone 

Tide will rise and fall along the bay 
And I'm not going anywhere 
I'm not going anywhere 
People come and go and walk away 
But I'm not going anywhere 
I'm not going anywhere 

Tap to rate this tab
 
# A B C D E F G H I J K L M N O P Q R S T U V W X Y Z