Guitaretab - guitar tabs
Song name
# A B C D E F G H I J K L M N O P Q R S T U V W X Y Z

Kermess - Ya Pas Grand Chose Dans Le Ciel A Soir tab

Title: Y'a pas grand chose dans le ciel a soir
Artist: Kermess
Album: Les douze nocturne
Tabber: Steph
Email: cyberbassist@hotmail.com


   E B E B  E                     B
G|---------|--------------------------------------------------------------|
D|---------|--------------------------------------------------------------|
A|---2---2-|----------------------2-22-22-22-22-22-22-22------------------|
E|-0---0---|0-00-00-00-00-00-00-0-----------------------------------------|

[ Tab from: http://www.guitaretab.com/k/kermess/66416.html ]
1:33
  F# C#      F#                   C#
G|---------|--------------------------------------------------------------|
D|-4---4---|-4-44-44-44-44-44-44-4----------------------------------------|
A|---4---4-|----------------------4-44-44-44-44-44-44-44------------------|
E|---------|--------------------------------------------------------------|


    F#                       C#
G|------------------------------------------------------------------------|
D|*-4-44-44-44-44-44-44-44-4---------------------------------------------*|
A|*--------------------------4-44-44-44-44-44-44-44-4--------------------*|
E|------------------------------------------------------------------------|

end
G|-------|
D|-------|
A|---4---|
E|-2---2-|

Pour toute corrections, email moi
EnJOy|
www.kermess.ca
Advertisement will be closed in 10 seconds