Song name
# A B C D E F G H I J K L M N O P Q R S T U V W X Y Z

Kesha - Blah Blah Blah tab

 -- Kesha  Blah Blah Blah --

standard tuning EADGBE

tabbed by x-tasha-x
                                          
Intro:
guitar 1&2:
E||---------------------------------|
B||---------------------------------|
G||-7---------------7---------------|
D||-7---------------7---------------|
A||-5---------------5---------------|
E||---------------------------------|


Verse:
Musics up, listen hot stuff...
guitar 1:
E||----------------|
B||----------------|
G||-7--10----------|x4
D||-7--10---7--8---|
A||-5--8----7--8---|
E||---------5--6---|

guitar 2:
E||-----------------|
B||-----------------|
G||-14-17-----------|x4
D||---------14-15---|
A||-----------------|
E||-----------------|


Chorus:
Blah Blah Blah, think you'll be getting this...
guitar 1:
E||----------------------------|
B||----------------------------|
G||-777-1010101010-------------|x4
D||-777-1010101010--777-88888--|
A||-555-8-8-8-8-8---777-88888--|
E||-----------------555-66666--|

guitar 2:
E||-----------------|
B||-----------------|
G||-14-17-----------|x4
D||---------14-15---|
A||-----------------|
E||-----------------|


Verse 2:
Boy come on and get my rocks off...
guitar 1:
E||----------------|
B||----------------|
G||-7--10----------|x8
D||-7--10---7--8---|
A||-5--8----7--8---|
E||---------5--6---|

guitar 2:
E||-----------------|
B||-----------------|
G||-14-17-----------|x8
D||---------14-15---|
A||-----------------|
E||-----------------|


CHORUS

Bridge
You be delayin, you won't be sayin some...
guitar 1&2:
E||-------------------------------------------------|
B||-------------------------------------------------|
G||-7---------7---------7---------------------------|
D||-7----7----7----7----7----7----5~----------------|
A||-5----7----5----7----5----7----5~----------------|
E||------5---------5---------5----3~----------------|


End With Chorus:
Blah Blah Blah, think you'll be getting this...
guitar 1:
E||----------------------------|
B||----------------------------|
G||-777-1010101010-------------|
D||-777-1010101010--777-88888--|
A||-555-8-8-8-8-8---777-88888--|
E||-----------------555-66666--|

guitar 2:
E||-----------------|
B||-----------------|
G||-14-17-----------|
D||---------14-15---|
A||-----------------|
E||-----------------|
Tap to rate this tab
# A B C D E F G H I J K L M N O P Q R S T U V W X Y Z