Song name
# A B C D E F G H I J K L M N O P Q R S T U V W X Y Z

Kesha - Your Love Is My Drug tab

This is my first guitar tab and thought that it'd be cool if i made this song acoustic. 
I did... By the way, for you guys out there, change some of the words like "Boy" to 
and "Mamma's" to "Brotha's".
Here it is, hope you guys like it!!!

Guitar 1
Intro: 0:00-0:39
E----------------------------------|
B----------------------------------|
G----------------------------------|
D-44444444-------------------------|
A---------444466661111222211112222-|
E----------------------------------|

Maybe I need some rehab, or maybe just need some sleep
I've got a sick obsession, I'm seeing it in my dreams

I'm looking down every alley, I'm making those desperate calls
Im staying up all night hoping, Hit my head against the walls

Guitar 2
Verse: 0:24-0:39
E----------------------------------|
B----------------------------------|
G-66666666-------------------------|
D-44444444666688883333444433334444-|
A---------444466661111222211112222-|
E----------------------------------|

What you've got boy is hard to find
Think about it all about it all the time
I'm all strung up my heart is fried
I just cant get you off my mind

Guitar 1
Chorus: 0:40-0:55
E------------------------------------------------------------------|
B------------------------------------------------------------------|
G------------------------------------------------------------------|
D------------------------------------------------------------------|
A-4444444466666666888899999999888899999999888899999999888899999999-|
E------------------------------------------------------------------|

Guitar 2
Chorus: 0:40-0:55
E-------------------------------------------------|
B-------------------------------------------------|
G---4x--664x----4x--334x----4x--664x----4x--334x--|
D-444x--664x--444x--334x--444x--664x--444x--334x--|
A-442x--442x--442x--112x--442x--442x--442x--112x--|
E-22----------22----------22----------22----------|

Because your love, your love, your love, is my drug
Your love your love your love
I said your love, your love, your love, is my drug
Your love your love your love

Guitar 1
Verse 2: 0:58-1:27
E----------------------------------|
B----------------------------------|
G----------------------------------|
D-44444444-------------------------|
A---------444466661111222211112222-|
E----------------------------------|

Won't listen to any advice, mamma's telling me to think twice
But left to my own devices i'm addicted its a crisis!

Guitar 2
Verse 2: 1:12-1:27
E----------------------------------|
B----------------------------------|
G-66666666-------------------------|
D-44444444666688883333444433334444-|
A---------444466661111222211112222-|
E----------------------------------|

My friends think I've gone crazy, my judgment is getting kinda hazy
My status is gonna be affected if I keep it up like a love sick crackhead

Guitar 1
Chorus: 1:27-1:43
E------------------------------------------------------------------|
B------------------------------------------------------------------|
G------------------------------------------------------------------|
D------------------------------------------------------------------|
A-4444444466666666888899999999888899999999888899999999888899999999-|
E------------------------------------------------------------------|

Guitar 2
Chorus: 1:27-1:43
E-------------------------------------------------|
B-------------------------------------------------|
G---4x--664x----4x--334x----4x--664x----4x--334x--|
D-444x--664x--444x--334x--444x--664x--444x--334x--|
A-442x--442x--442x--112x--442x--442x--442x--112x--|
E-22----------22----------22----------22----------|

Because your love, your love, your love, is my drug
Your love your love your love
I said your love, your love, your love, is my drug
Your love your love your love

Guitar 1
Bridge: 1:44-1:59
E--------------------------------------|
B--------------------------------------|
G--------------------------------------|
D--4-4-4-4-6-6-6-6-8-8-8-8-11-11-11-11-|
A-2-2-2-2-4-4-4-4-6-6-6-6-9-9-9-9------|
E--------------------------------------|

Repeat twice, and then fill in with claps after(it's simple).

I don't care what people say
The rush is worth the price I pay
I get so high when you're with me
But crash and crave you when you are away

So I got a question
Do you want to have a summer party in my basement?
Do I make your heart beat like a native drum?
Is my love, your drug?
(huh) Your drug? (huh) your drug? (huh) your drug?
Is my love, your drug?

Guitar 2
Bridge: 1:44-1:59
BASS= GUITAR HIT

Guitar 1
Chorus: 2:17-2:50
E------------------------------------------------------------------|
B------------------------------------------------------------------|
G------------------------------------------------------------------|
D------------------------------------------------------------------|
A-4444444466666666888899999999888899999999888899999999888899999999-|
E------------------------------------------------------------------|

Guitar 2
Chorus: 2:17-2:50
E-------------------------------------------------|
B-------------------------------------------------|
G---4x--664x----4x--334x----4x--664x----4x--334x--|
D-444x--664x--444x--334x--444x--664x--444x--334x--|
A-442x--442x--442x--112x--442x--442x--442x--112x--|
E-22----------22----------22----------22----------|

Because your love, your love, your love, is my drug
Your love your love your love
I said your love, your love, your love, is my drug
Your love your love your love


Improvise ending with alternating high notes(guitar 2 is responsible for clapping). Also 
of "I like your beard"(girls don't have beards, thank god), replace it with "I like 
hair" or even "You're beautiful".

Enjoy!
Tap to rate this tab
 
# A B C D E F G H I J K L M N O P Q R S T U V W X Y Z