Song name
# A B C D E F G H I J K L M N O P Q R S T U V W X Y Z

Kesha - Blind tab

 -- Kesha  Blind --

Drop D tuning DADGBE

tabbed by x-tasha-x

Hey this song is kinda the same all the way through except from the bridge =D
                                      
Intro:
guitar 1:
E||--------------------------------------|  
B||--------------------------------------| 
G||--------------------------------------|
D||-6-6-6-6-6-6-5-5-10-10-10-10----------|  
A||-----------------------------8-8-8-8--|  
D||--------------------------------------| 

guitar 2:
E||----------------------------------|  
B||----------------------------------| 
G||-------------------------6-6-6-6--|
D||-3-3-3-3-3-3-1-1-6-6-6-6-6-6-6-6--|  
A||-3-3-3-3-3-3-1-1-6-6-6-6-4-4-4-4--|  
D||-3-3-3-3-3-3-1-1-6-6-6-6----------| 


Verse:
I think you got the best of me...
guitar 1:
E||--------------------------------------|  
B||--------------------------------------|x4
G||--------------------------------------|
D||-6-6-6-6-6-6-5-5-10-10-10-10----------|  
A||-----------------------------8-8-8-8--|  
D||--------------------------------------| 

guitar 2:
E||----------------------------------|  
B||----------------------------------|x4
G||-------------------------6-6-6-6--|
D||-3-3-3-3-3-3-1-1-6-6-6-6-6-6-6-6--|  
A||-3-3-3-3-3-3-1-1-6-6-6-6-4-4-4-4--|  
D||-3-3-3-3-3-3-1-1-6-6-6-6----------| 


Chorus:
I'm sick and tired of the mess you made me...
guitar 1:
E||--------------------------------------|  
B||--------------------------------------|x4 
G||--------------------------------------|
D||-6-6-6-6-6-6-5-5-10-10-10-10----------|  
A||-----------------------------8-8-8-8--|  
D||--------------------------------------| 

guitar 2:
E||----------------------------------|  
B||----------------------------------|x4
G||-------------------------6-6-6-6--|
D||-3-3-3-3-3-3-1-1-6-6-6-6-6-6-6-6--|  
A||-3-3-3-3-3-3-1-1-6-6-6-6-4-4-4-4--|  
D||-3-3-3-3-3-3-1-1-6-6-6-6----------| 


Verse 2:
I've let go, finally over you...
guitar 1:
E||--------------------------------------|  
B||--------------------------------------|x4
G||--------------------------------------|
D||-6-6-6-6-6-6-5-5-10-10-10-10----------|  
A||-----------------------------8-8-8-8--|  
D||--------------------------------------| 

guitar 2:
E||----------------------------------|  
B||----------------------------------|x4 
G||-------------------------6-6-6-6--|
D||-3-3-3-3-3-3-1-1-6-6-6-6-6-6-6-6--|  
A||-3-3-3-3-3-3-1-1-6-6-6-6-4-4-4-4--|  
D||-3-3-3-3-3-3-1-1-6-6-6-6----------| 


CHORUS

Bridge:
I trusted you, you were the first...
guitar 1:
E||--------------------------------------|  
B||--------------------------------------|x2 
G||--------------------------------------|
D||---------10-10-10-10-5-5-5-5-6-6-6-6--|  
A||-8-8-8-8------------------------------|  
D||--------------------------------------| 

guitar 2:
E||----------------------------------|  
B||----------------------------------|x2
G||-6-6-6-6--------------------------|
D||-6-6-6-6-6-6-6-6-1-1-1-1-3-3-3-3--|  
A||-4-4-4-4-6-6-6-6-1-1-1-1-3-3-3-3--|  
D||---------6-6-6-6-1-1-1-1-3-3-3-3--| 


End With Chorus:
I'm sick and tired of the mess you made me...
guitar 1:
E||--------------------------------------|  
B||--------------------------------------|x4
G||--------------------------------------|
D||-6-6-6-6-6-6-5-5-10-10-10-10----------|  
A||-----------------------------8-8-8-8--|  
D||--------------------------------------| 

guitar 2:
E||----------------------------------|  
B||----------------------------------|x4 
G||-------------------------6-6-6-6--|
D||-3-3-3-3-3-3-1-1-6-6-6-6-6-6-6-6--|  
A||-3-3-3-3-3-3-1-1-6-6-6-6-4-4-4-4--|  
D||-3-3-3-3-3-3-1-1-6-6-6-6----------| 
Tap to rate this tab
# A B C D E F G H I J K L M N O P Q R S T U V W X Y Z