Song name
# A B C D E F G H I J K L M N O P Q R S T U V W X Y Z

Kesha - Party At A Rich Dudes House tab

 -- Kesha  Party At A Rich Dudes House --

standard tuning EADGBE

tabbed by x-tasha-x
                                          
Intro:
guitar 1:
E||----------------------|
B||----------------------|
G||-9999-5--5-7----------|x2
D||-xxxx-x--x-x--6666-5--|
A||-7777-3--3-5--xxxx-x--|
E||--------------4444-3--|

guitar 2:
E||----------------------|
B||----------------------|
G||-9999-5--5-7----------|x2
D||-9999-5--5-7--6666-5--|
A||-7777-3--3-5--6666-5--|
E||--------------4444-3--|


Verse:
Swimming Pool, Limousines come on lets do it...
guitar 1:
E||----------------------|  |----------------|
B||----------------------|  |----------------|
G||-9999-5--5-7----------|x7|-9999-5--5-7----|
D||-xxxx-x--x-x--6666-5--|  |-xxxx-x--x-x----|
A||-7777-3--3-5--xxxx-x--|  |-7777-3--3-5----|
E||--------------4444-3--|  |----------------|

guitar 2:
E||----------------------|  |----------------|
B||----------------------|  |----------------|
G||-9999-5--5-7----------|x7|-9999-5--5-7----|
D||-9999-5--5-7--6666-5--|  |-9999-5--5-7----|
A||-7777-3--3-5--6666-5--|  |-7777-3--3-5----|
E||--------------4444-3--|  |----------------|


Chorus:
Whoa, there's a party at a rich dudes house..
guitars 1&2:
E||--------------------------|
B||--------------------------|x4
G||----------6666------8888--|
D||-10101010-6666-6666-8888--|
A||-10101010-4444-6666-6666--|
E||-8 8 8 8-------4444-------|


INTRO

Verse 2:
No where not on the list, come on lets do it...
guitar 1:
E||----------------------|  |----------------|
B||----------------------|  |----------------|
G||-9999-5--5-7----------|x5|-9999-5--5-7----|
D||-xxxx-x--x-x--6666-5--|  |-xxxx-x--x-x----|
A||-7777-3--3-5--xxxx-x--|  |-7777-3--3-5----|
E||--------------4444-3--|  |----------------|

guitar 2:
E||----------------------|  |----------------|
B||----------------------|  |----------------|
G||-9999-5--5-7----------|x5|-9999-5--5-7----|
D||-9999-5--5-7--6666-5--|  |-9999-5--5-7----|
A||-7777-3--3-5--6666-5--|  |-7777-3--3-5----|
E||--------------4444-3--|  |----------------|


CHORUS

Bridge:
Wake up in the front yard, we don't care...
guitars 1&2:
E||----------------------------------------------------|
B||----------------------------------------------------|
G||-------8~----------8~----------8~----6666-55-88~----|
D||-8~----8~----8~----8~----8~----8~----6666-55-88~----|
A||-8~----6~----8~----6~----8~----6~----4444-33-66~----|
E||-6~----------6~----------6~-------------------------|


then:
Where's my coat...where?..
guitar 1:
E||----------------------|
B||----------------------|
G||-9999-5--5-7----------|x2
D||-xxxx-x--x-x--6666-5--|
A||-7777-3--3-5--xxxx-x--|
E||--------------4444-3--|

guitar 2:
E||----------------------|
B||----------------------|
G||-9999-5--5-7----------|x2
D||-9999-5--5-7--6666-5--|
A||-7777-3--3-5--6666-5--|
E||--------------4444-3--|


then:
guitars 1&2:
E||--------------------------|
B||--------------------------|
G||----------6666------8888--|
D||-10101010-6666-6666-8888--|
A||-10101010-4444-6666-6666--|
E||-8 8 8 8-------4444-------|


End With Chorus:
guitar 1&2:
E||--------------------------|
B||--------------------------|
G||----------6666------8888--|x4
D||-10101010-6666-6666-8888--|
A||-10101010-4444-6666-6666--|
E||-8 8 8 8-------4444-------|
Tap to rate this tab
# A B C D E F G H I J K L M N O P Q R S T U V W X Y Z