Song name
# A B C D E F G H I J K L M N O P Q R S T U V W X Y Z

Kesha - Tik Tok tab

Artist: Kesha
Song: Tik Tok
Tabbed By: Paul Soberanes
                                  Intro
e------------------------------------------------------------------|
B------------------------------------------------------------------|
G------------------------------------------------------------------|
D-------------------------8-------------------------------------8--|
A-6-8-6--6-8-8-9-9-9-9--6--6-8-8-9-9-9-9--6-8-6--6-8-8-9-9-9-9-6-6-|
E------------------------------------------------------------------|

                                Chorus
e----------------------------------------------|
B----------------------------------------------|
G--------------------------3x------------------|     do this at the end of the 3rd time
D---8----------------------     D---6------6---|
A-8-6-8--8--10-10-12-12-12-     A-6-4-6--6-4-6-|
E-6---6--6--8--8--10-10-10-     E-4---4--4---4-|
Tap to rate this tab
# A B C D E F G H I J K L M N O P Q R S T U V W X Y Z