Song name
# A B C D E F G H I J K L M N O P Q R S T U V W X Y Z

Kesha - Tik Tok tab

Tik Tok
By Kesha

Tuning Standard

Inro/Verse

E---------------------------------------------------------|
B---------------------------------------------------------|
G----------------------10-10-10---14-------------10-10-10-|
D---12-12-12--12-14-14----------12--12--12-14-14----------|
A---------------------------------------------------------|
E---------------------------------------------------------|

Chorus 1.1

E--------------------------------------------------------|
B--------------------------------------------------------|
G---3-3-3--3-5-5-7-7-7-----------------------------------|
D---x-x-x--x-x-x-x-x-x-----------------------------------|
A---1-1-1--1-3-3-5-5-5-----------------------------------|
E--------------------------------------------------------|

Chorus 1.2

E--------------------------------------------------------|
B--------------------------------------------------------|
G--------------------------------------------------------|
D---5/7/5//12-12-10-12-----------------------------------|
A---x/x/x//x--x--x--x------------------------------------|
E---3/5/3//10-10-8--10-----------------------------------|

Breakdown thingy

E--------------------------------------------------------|
B--------------------------------------------------------|
G--------------------------------------------------------|
D--------------------------------------------------------|
A----------12~10~------12~10~------12~10~----------------|
E---18~15~-------18~15~------18~15~------18~15~~---------|


Song order

Inrto/Verse X3
Chorus 1.1 X3
Chorus 1.2 X1
Chorus 1.1 X3
Chorus 1.2 X1
Intro/Verse X3
Breakdown thingy X1
Chorus 1.1 X3
Chorus 1.2 X1
Chorus 1.1 X3
Chorus 1.2 X1

That's it. This is my first tab EVER so hopefully it turned out ok.
Tap to rate this tab
 
# A B C D E F G H I J K L M N O P Q R S T U V W X Y Z