Kesha - Take It Off tab

Main Verse Part
e------------------------------------------------------------|
B--------9-8-6-------9-13-9-8-6------------------------------|
G--10-12-------10-12-----------------------------------------|
D------------------------------------------------------------|
A------------------------------------------------------------|
E------------------------------------------------------------|

Chorus Part (Guitar following voice)

e---------------- e--------------------|
B---------------- B--------------------|
G--9-11-11-9-11-- G-11-9-11-9-11-9-11--|
D---------------- D--------------------|
A---------------- A--------------------|
E---------------- E--------------------|

Solo-type part

e------------------------|
B------------------------|
G---------------9-7-6-7--|
D--9-11-12-11-9----------|
A------------------------|
E------------------------|

Tabbed by Gary Duddy
Tap to rate this tab
 
# A B C D E F G H I J K L M N O P Q R S T U V W X Y Z