Song name
# A B C D E F G H I J K L M N O P Q R S T U V W X Y Z

Kesha - Tik Tok tab

|--------------------------------------------------|
|---------------------------10---------------------|
|-7-7-7-7-9-9-10-10-10-10-7----7-7-9-9-10-10-10-10-|
|--------------------------------------------------|
|--------------------------------------------------|
|--------------------------------------------------|

|-------------------------------|
|---------------------------6---|
|-7-7-7-7-9-9-10-10-10-10-3---3-|
|-------------------------------|
|-------------------------------|
|-------------------------------|

|--------------------------------|
|---10---------------------------|
|---10---------------------------|
|-8----8-8-10-10-10-10-12-12-12\-|
|-8----8-8-10-10-10-10-12-12-12\-|
|-8----8-8-10-10-10-10-12-12-12\-|

|-------------|
|-------------|
|-------------|
|-------------|
|-------5v-3v-|
|-8v-5v-------|
Tap to rate this tab
 
# A B C D E F G H I J K L M N O P Q R S T U V W X Y Z