Song name
# A B C D E F G H I J K L M N O P Q R S T U V W X Y Z

Kesha - Die Young tab

This tab is pretty much 100% correct. Enjoy :)

Tuning: Drop D

Key: h - Hammer on
     p - Pull off

Verse/Chorus

e|-----------|
B|-----------|
G|--6-4-9----|
D|--6-4-9-7--|  (Repeat throughout song)
A|--4-2-7-7--|
D|--------7--|

Solo

e|-----------4h5p4------|
B|--5-5-4-0----------4--|
G|-----------------6----|
D|----------------------|
A|----------------------|
D|----------------------|
Tap to rate this tab
 
# A B C D E F G H I J K L M N O P Q R S T U V W X Y Z