Song name
# A B C D E F G H I J K L M N O P Q R S T U V W X Y Z

Kesshin - One More Regret tab

Artist:Kesshin
Song:One More Regret
Tempo:Fast
Tabbed By:Deyquan Perry
Contact:p.deyquan@yahoo.com




**Intro**
E------------3-3-33333-----------5--5--55555-------------3-3-33333---------|
A--2-2-22222-----------5-5-55555--------------2-2-22222--------------------|
D--------------------------------------------------------------------------|
G--------------------------------------------------------------------------|

E--5-5-55555-----------------------------------------------------------------|
A--------------12-12-1212121212----------------------------------------------|
D----------------------------------------------------------------------------|
G----------------------------------------------------------------------------|
               *12 NOT 1 and 2!

 **Main Riff**
                                                                  X2
E------------3-3-33333-----------55555-------------------------------------|
A--2-2-22222-----------5-5-55555-------------------------------------------|
D--------------------------------------------------------------------------|
G--------------------------------------------------------------------------|
    (Play FAST)                                                   X2
E----------------3-3333333333--------------5-5555555555--------------------|
A--2-2222222222---------------5-5555555555---------------------------------|
D--------------------------------------------------------------------------|
G--------------------------------------------------------------------------|

**Bridge**                                                        X4

E-------------0--3>>>>>>>------------0--3>>>>>>>---------------------------|
A--2--2----2--------------2--2----2----------------------------------------|
D--------------------------------------------------------------------------|
G--------------------------------------------------------------------------|
**REPEAT INTRO X1
**REPEAT MAIN RIFF
**REPEAT BRIDGE X1

**SOLO**  (Play This Section 3 Times Then Open E Repeating!)      X2

E-----------------2>>>>>>>>------3>>>>>>>>---0000000000000000--------------|
A--2--2----2---------------------------------------------------------------|
D--------------------------------------------------------------------------|
G--------------------------------------------------------------------------|

**Outro**(Repeat Solo As Continuesly Plucked Or Picked Notes, Then Repeat Intro X1)
Tap to rate this tab
 
# A B C D E F G H I J K L M N O P Q R S T U V W X Y Z