Guitaretab - guitar tabs
Song name
# A B C D E F G H I J K L M N O P Q R S T U V W X Y Z

Kesshin - One More Regret tab

Artist - Kesshin
Song - One More Regret
Tuning - Stardard
(http://kesshinband.free.fr)

An amazing band that you may have heard playing on the radio's in Splinter Cell:
Chaos Theory

Listen to the song to get the timing (as I can't write it here very well!)

Intro
e|-----------------------------------------------------------------------|
B|-----------------------------------------------------------------------|
G|-7-7-7-7-7-7-7-7-7-7-7-7-6-6-6-6--7-7-7-7-11-11-9-7-11-11-9-9-9-9-6-6--|
D|-x-x-x-x-x-x-x-x-x-x-x-x-x-x-x-x--x-x-x-x-x--x--x-x-x--x--x-x-x-x-x-x--|
A|-5-5-5-5-5-5-5-5-5-5-5-5-4-4-4-4--5-5-5-5-9--9--7-5-9--9--7-7-7-7-4-4--|
E|-----------------------------------------------------------------------|

Verse (part 1)
e|-----------------------------------------------------------------------|
B|-----------------------------------------------------------------------|
G|-4------------------------------7--------------------------------------|
D|-4--------------5---------------7------------------7-------------------|x2
A|-2--------------5---------------5------------------7-------------------|
E|----------------3----------------------------------5-------------------|
Verse (part 2) - Palm muted
e|-----------------------------------------------------------------------|
B|-----------------------------------------------------------------------|
G|-4------------------------------7--------------------------------------|
D|-4--------------5---------------7------------------7-------------------|x2
A|-2--------------5---------------5------------------7-------------------|
E|----------------3----------------------------------5-------------------|
[ Tab from: http://www.guitaretab.com/k/kesshin/69090.html ]
Chorus
e|-----------------------------------------------------------------------|
B|-----------------------------------------------------------------------|
G|-4--4-4-4--4--4--------------------------------------------------------|
D|-4--4-4-4--4--4---2--2-2-2--2--2---------------------------------------|x4
A|-2--2-2-2--2--2---2--2-2-2--2--2---------------------------------------|
E|------------------0--0-0-0--0--0---------------------------------------|

Solo & Bridge
 |  first 3 times              |   fourth time
e|-----------------------------|---------------------------------|
B|-----------------------------|---------------------------------|
G|-4--4-4-4--4--4--------------|---------------------------------|
D|-4--4-4-4--4--4---4------5---|---------------------------------| x3
A|-2--2-2-2--2--2---4------5---|-2-2-2-2-2-2-2-2-2-2-2-2-2-2-2-2-|
E|------------------2------3---|-0-0-0-0-0-0-0-0-0-0-0-0-0-0-0-0-|


Layout:
Intro
Verse part 1
Verse part 2
Chorus
Intro
Verse (part 1 then part 2)
Chorus
Solo
Bridge
Intro

Finish on
e|----|
B|----|
G|-7--|
D|-x--|
A|-5--|
E|----|

I've yet to work out the solo, but other than that I think it's alomst all correct

Lyrics:

Have tummy ache, and suffocate. Just as they loaded me in a hole
And as the ground covered my remains. Oh and this fuckiní taste in mouth
I missed the bus, I missed the boat. And the candle is burnt, just melted wax
Now I canít lie, itís too late to sigh. If you ask Iíll say itís ok
And sit back at my place

Sorry I am. I broke the spell. But it was over me. I need to dream
Another time, it seems I stick my fingers oh right into my eyes
No matter for me. Can do with it. No problem, itís all honky dory
Iíll send a smile. Say itís all right. Put back my things. Pack up and be off
And sit back at my place
Related for One More Regret tab