Song name
# A B C D E F G H I J K L M N O P Q R S T U V W X Y Z

Ketamine - Fly Me To The Moon tab

Intro repeat x 2 times
D#-0-0-0----0--0--------------|
A#-0-0-0----0--0--------------|
F#-6-6-6----4--2--------------|
C#-7-7-7----5--3--------------|
G#-7-7-7----5--3--------------|
D#-5-5-5----3--1--------------|

CHORUS repeat x 2 times

D#--0--0--0--0---0-0-0-0-0----0-0-0-0---0-0-0--|
A#--0--0--0--0---0-0-0-0-0----2-2-2-2---1-1-1--|
F#--9--9--9--9---8-8-8-8-8----0-0-0-2---0-0-0--|
C#--10-10-10-10--9-9-9-9-9----3-3-3-3---2-2-2--|
G#--10-10-10-10--9-9-9-9-9----4-4-4-4---3-3-3--|
D#--8--8--8--8---7-7-7-7-7----0-0-0-4---0-0-0--|

This song is for a girl named Sindy, and I wrote it with my best friend
my name is Elias"Grunge" and I would like to say that  I love Sindy.

This is for you little girl.

To request lyrics  email me at kurt8506@hotmail.com

this a very good composition, i hope you have fun.
Tap to rate this tab
# A B C D E F G H I J K L M N O P Q R S T U V W X Y Z