Song name
# A B C D E F G H I J K L M N O P Q R S T U V W X Y Z

Kettcar - Balkon Gegenber tab

    D                Asus2            E                F#     G      A
---------------------------------------------------------------------------|
---------------------------------------------------------------------------|
----7-7-7-7-7-7-7-7--7-7-7-7-7-7-7-7---------------------------------------|
----7-7-7-7-7-7-7-7--7-7-7-7-7-7-7-7--9-9-9-9-9-9-9-9----------------------|
----5-5-5-5-5-5-5-5--0-0-0-0-0-0-0-0--7-7-7-7-7-7-7-7--9-9-9--10-10--12----|
--------------------------------------0-0-0-0-0-0-0-0--0-0-0--0--0---0-----|


    Bm7              A                G     Gsus4 G      Gsus4 G   Gsus4
---------------------------------------------------------------------------|
---------------------------------------------------------------------------|
---------------------------------------------------------------------------|
----------7-----7----7-7-7-7-7-7-7----5-5-5-5-5-5-5-5----5-5-5-5-5-5-5-----|
----9-9-9-9-9-9-9-9--7-7-7-7-7-7-7-0--5-5-5-4-4-4-5-5--x-4-4-4-5-5-4-4-----|
----7-7-7-7-7-7-7-7--5-5-5-5-5-5-5-0--3-3-3-3-3-3-3-3--x-3-3-3-3-3-3-3-----|
Tap to rate this tab
 
# A B C D E F G H I J K L M N O P Q R S T U V W X Y Z