Guitaretab - guitar tabs
Song name
# A B C D E F G H I J K L M N O P Q R S T U V W X Y Z

Kevin Cadogan - Further Than The Stars tab

Highlighted       Show chord diagrams
Further than stars - Cousin Kevin

This is my first try. It's not 100% correct but sounded close enough.
This is a great song by kevin, i couldn't find any intro tabs online so 
I just went ahead tab it myself, hope you like it.

---- 110 tab ----

[ Tab from: ]
E ---0-3-0----------------------------2-------2/3/2--------|
B -3------------------------0-----------3-----------0------|
G ----------------------------0-----2-----2-2--------------|
D ------------0-----0-----0-----0-0------------------------|
A ----------3---2/3---3------------------------------------|
E ----------------------3----------------------------------|

E ----3--------3-3--2---------------------------|
B -----3-------3-3--2---------------------------|
G ------0------0-0--2---------------------------|
D --2----------0-0--0---------------------------|
A 3---------2-------0---------------------------|
E --------3---------0---------------------------|


A    Cadd9     C      G      C     G    Cadd9 


Cadd9    G     D    X  3
Cadd9    Gmaj 

Then repeat Verse and so on