Song name
# A B C D E F G H I J K L M N O P Q R S T U V W X Y Z

Kevin Devine - I Could Be With Anyone tab

----------------------------------------------------------------------------
		  I Could Be With Anyone - Kevin Devine
----------------------------------------------------------------------------

Tabbed by:Robert C Madden
Email: pileofwaste@hotmail.com

Hi, I don't do tabs very often and so it irks me to discover that after all my hard work 
failed to put in the palm mute x's.  Suffice it to say that
the whole song is palm-muted, which i'm sure you all figured out anyway.

Oh and this is kind of a mish-mash version of the song, pieced together from the 
demo (which, incidentally is played with the guitar tuned down half a step)
and a couple of live versions which Kevin plays in regular tuning.

Feel free to e-mail me with any questions.

Tuning: Standard


First Verse:


   'I could be with...'      '...that keeps things light, I'm not saying...'
e|-------------------------------------------------------------------------|
B|-------------------------------------------------------------------------|
G|-------------------------------------------------------------------------|
D|-------------------------------------------------------------------------|
A|-2222222222222222--6666666666666666--2222222222222222--------------------|
E|-0000000000000000--7777777777777777--4444444444444444--------------------|

   'that it's right...'                '...just saying that it's not a lie.'
e|-------------------------------------------------------------------------|
B|-------------------------------------------------------------------------|
G|-------------------------------------------------------------------------|
D|-------------------------------------------------------------------------|
A|-4444-6666-7777-6666--4444-7777-7777-2222--9999999766666666--------------|
E|-5555-5555-5555-5555--2222-4444-5555-0000--7777777777777777--------------|


Second Verse: repeat first verse


Third Verse: repeat first verse but with this modified ending:


 '...deep. A tempting sample...''...broken glass that's waiting underneath.'
e|-------------------------------------------------------------------------|
B|-------------------------------------------------------------------------|
G|-------------------------------------------------------------------------|
D|-------------------------------------------------------------------------|
A|-4444-6666-7777-6666--4444-7777-7777-2222--99999999-66666666-------------|
E|-5555-5555-5555-5555--2222-4444-5555-0000--77777777-88888888-------------|


Bridge:


  'I'd walk soft...'                       'not what I'll be, oh hopefully.'
e|-------------------------------------------------------------------------|
B|-------------------------------------------------------------------------|
G|-------------------------------------------------------------------------|
D|-22222222-44444444--22222222---------------------------------------------|
A|-44444444-66666666--00000000-22222222--4442444244424442--9999999999999999|
E|-----------------------------00000000--2222222222222222--7777777777777777|


(***guitar instrumental***)


e|-------------------------------------------------------------------------|
B|-------------------------------------------------------------------------|
G|-------------------------------------------------------------------------|
D|-2222-4444-6666-4444--2222-4444-9999-6666--------------------------------|
A|-0000-0000-0000-0000--2222-2222-7777-7777--------------------------------|
E|----------------------0000-0000-0000-0000--------------------------------|

e|-------------------------------------------------------------------------|
B|-------------------------------------------------------------------------|
G|-------------------------------------------------------------------------|
D|-2222-4444-6666-1111-----------------------------------------------------|
A|-0000-0000-0000-0000--4444-2222-6666-2222--------------------------------|
E|----------------------0000-0000-0000-0000--------------------------------|

e|-------------------------------------------------------------------------|
B|-------------------------------------------------------------------------|
G|------------4----4-------------------------------------------------------|
D|-2222-4444-6-66-6-66--2222-4444-9999-6666--------------------------------|
A|-0000-0000-0-00-0-00--2222-2222-7777-7777--------------------------------|
E|----------------------0000-0000-0000-0000--------------------------------|

e|-------------------------------------------------------------------------|
B|-------------------------------------------------------------------------|
G|-------------------------------------------------------------------------|
D|-2222-4444-6666-1111-----------------------------------------------------|
A|-0000-0000-0000-0000--4444-2222-6666-7777--------------------------------|
E|----------------------0000-0000-0000-0000--------------------------------|

e|-------------------------------------------------------------------------|
B|-------------------------------------------------------------------------|
G|-------------------------------------------------------------------------|
D|-------------------------------------------------------------------------|
A|-4444-2222-6666-4444-7777-6666-9999-6666---------------------------------|
E|-2222-2222-4444-4444-5555-5555-7777-7777---------------------------------|

e|-------------------------------------------------------------------------|
B|-------------------------------------------------------------------------|
G|-------------------------------------------------------------------------|
D|-------------------------------------------------------------------------|
A|-22222222-77777777--11-11-11-11-11-11-11-11--11--------------------------|
E|-00000000-00000000--0--0--0--0--0--0--0--0---0---------------------------|


Final Verse:  return to original verse with this ending:


 'I'm not saying that it's right...''...that it's where I'm at tonight.'
e|-------------------------------------------------------------------------|
B|-------------------------------------------------------------------------|
G|-------------------------------------------------------------------------|
D|-------------------------------------------------------------------------|
A|-4444-6666-7777-6666--4444-7777-7777-2222--9999999999999999--------------|
E|-5555-5555-5555-5555--2222-4444-5555-0000--7777777777777777--------------|


Outro:


  'I could be with anyone.' (x4)
e|-------------------------------------------------------------------------|
B|-------------------------------------------------------------------------|
G|-------------------------------------------------------------------------|
D|-------------------------------------------------------------------------|
A|-2222222222222222--7777-7777-9999-6666----------2--<- end note-----------|
E|-0000000000000000--4444-5555-8888-7777----------0------------------------|

| /  slide up
| \  slide down
| h  hammer-on
| p  pull-off
| ~  vibrato
| +  harmonic
| x  Mute note
============================================================================
Tap to rate this tab
# A B C D E F G H I J K L M N O P Q R S T U V W X Y Z