Guitaretab - guitar tabs
Song name
# A B C D E F G H I J K L M N O P Q R S T U V W X Y Z

Kevin Devine - Fever Moon tab

-------------------------------------------------------------------------------
			     Kevin Devine Ė Fever Moon
-------------------------------------------------------------------------------
Tabbed by: Matt

Tuning: Standard

Key: C minor

Chords:
Cmin
Ebmaj
Fmin
Gmaj
Bbmaj

If you look at his videos, K Dev plays this with a capo at the 3rd fret, but it really 
helps with some of the chord voicings. Otherwise itís not required


This is my first tab, so any comments would be greatly appreciated! Feel free to let me 
if I got this completely wrong. Enjoy!

           intro

       Cmin
e|---------------------------------------    ------------------------------------|
B|------4-------4------------------------    ------4-----------------------------|
G|------5-------5------------------------    ------5-----------------------------|
D|------5-------5------3h5p3------------- X3 ------5-----------------------------|
A|------3-------3------------------------    ------3-----------------------------|
E|-----------------------------3---5-----    ------------------------------------|

            verse #1

     Cmin X4   Gmaj X4   Bbmaj X2  Fmin       Ebmaj          Cmin
e|-----------------------------------4----------------------------------------|
B|-----4------------------6----------6----------4---------4---4---------------|
G|-----5---------4--------3----------5----------3---------3---5---------------|
D|-----5---------5--------3----------3----------5---------5---5---------------|
A|-----3---------5--------5---------------------6---------6---3---------------|
E|---------------3------------------------------------------------------------|

e|----------------------------------------------------------------------------|
B|---4-------------------------4----------------------------------------------|
G|---5-------------------------5----------------------------------------------|
D|---5----3h5p3----------------5----------------------------------------------|
A|---3-------------------------3----------------------------------------------|
E|----------------3---5-------------------------------------------------------|

                and repeat

                then on ďI tied myself into knotsĒ (verse #2)
[ Tab from: http://www.guitaretab.com/k/kevin-devine/185714.html ]
       Cmin X2    Gmaj X2   Cmin X2   Fmin X2   Bbmaj X2   Ebmaj X2
e|--------------------------------------4-------------------------------------|
B|------4---------------------4---------6---------6----------4----------------|
G|------5-----------4---------5---------5---------3----------3----------------|
D|------5-----------5---------5---------3---------3----------5----------------|
A|------3-----------5---------3-------------------5----------6----------------|
E|------------------3---------------------------------------------------------|

       Cmin X2
e|----------------------------------------------------------------------------|
B|-------4--------------------------------------------------------------------|
G|-------5--------------------------------------------------------------------|
D|-------5------3h5p3---------------------------------------------------------|
A|-------3--------------------------------------------------------------------|
E|-----------------------3---5------------------------------------------------|

        repeat first verse through solo

        repeat verse #2 through ďI bite your belly softÖĒ

        finish out on verse #1 and end with the intro


lyrics:
Youíre hot fog
I can feel you and youíre not far off
I can taste you and youíre what I want
But I donít know you even when youíre in my arms.

Youíre burnt sky
A fever moon that makes the sun jealous at night
Your lava lips pour forth and branding iron eyes
Fix them unto me and bring me back to life.

Youíre quick sand
I work and fight but just sink deeper in the end
And every morning say I wonít get stuck again
But it's nightfall baby here I always am.

I tie myself in knots
You come and shake me loose
Iím bound up in you
We push til youíre through
Lit up with proof.

I bite your belly soft
You make maps on my back
You blockade the door
I sink to your floor
Get ready for war.

Youíre hot fog
The bad decision that I lie here waiting on
Staring down your next mistake can take so long
When I hear your footsteps babe, I donít care that itís wrong
No, I donít care that itís wrong
No, I donít care that itís wrong.


| /  slide up
| \  slide down
| h  hammer-on
| p  pull-off
| ~  vibrato
| +  harmonic
| x  Mute note
===============================================================================
Related for Fever Moon tab