Song name
# A B C D E F G H I J K L M N O P Q R S T U V W X Y Z

Kevin Devine - I Could Be With Anyone tab

This tab is just an add on to another nearly flawless tab I saw here on ultimate-guitar

this comes in at the beginning of the second verse.

e-4---7---------------------------------------|
B---------4---7-------5-------5---------------|
G-----------------4-------6-------4---------4-|
D---------------------------------------------|
A---------------------------------------------|
E---------------------------------------------|


solo.   (this probably isn't right but if you're a real musician you should be able to 
solos differently every time)

e-----------------------------------------------------|
B-------------------------9-9p8-8p6-6-----------------|
G-------------------------------------9-9p6h7p6-------|
D--------9--------------------------------------------|
A----6h7---6h7h9-7p6h7--------------------------------|
E-----------------------------------------------------|

e------------------------------------------------------|
B---9-9p8-8p6-6--------------9-9p8-8p6-6---------------|
G---------------9-9p6h7p6----------------9-9p6h7p6h7p6-|
D------------------------------------------------------|
A------------------------------------------------------|
E------------------------------------------------------|

e-------------------------|
B-------------------------|
G-------------------------|
D-----------9-9-----------|
A---6-6h7-7-----9-7h9p7---|
E-------------------------|
Tap to rate this tab
# A B C D E F G H I J K L M N O P Q R S T U V W X Y Z